PrimaNota.ru - самый крупный в мире бесплатный архив песенных текстов, аккордов, табулатур и нот


Luciano Ligabue - Radiofreccia - таба, видео

Регистрация Запомнить меня
Войти через:  Facebook Google Twitter Vk Yandex Mail.ru

Luciano Ligabue - Radiofreccia - таба, видео

Печатать
Просмотров: 59
		   Ok, ho tabulato fino a 2:08 minuti.
Riposto l'intro perchè c'era un piccolo errore nel tempo.
Le sezioni subito dopo l'intro (2A e 2B) sono eseguite da 2 chitarre, la
solita Open G e un'altra probabilmente standard, che
esegue le note della melodia. Poichè non sono riuscito a separarle, ho
postato un mix da suonare in Open G, anche se occorre usare il mignolo che
in effetti dovrebbe essere bloccato dal bottleneck.
Nella Sezione 3A entra una chitarra sul canale sinistro in accordatura
standard.
Nella Sezione 3B entra anche un'altra chitarra sul canale destro, pure in
accordatura standard che esegue tutte le note stoppandole in palm mute.

Saluti!
Bonzo



LIGABUE - RADIOFRECCIA

Gt. 1 (Tuning : D G D G B D) - Open G
Gt. 2 (Tuning: Standard) - Canale sinistro
Gt. 3 (Tuning: Standard) - Canale destro

Intro:
Gt. 1 (Open G)
 |       |       |       |        |       |       |       |
|--------------------------------|--------------------------------|
|--------------------------------|--------------------------------|
|------------------------0-------|2-----------------------0-------|
|----------------0h--2-----------|--------------------------------|
|--------------------------------|--------------------------------|
|--------------------------------|--------------------------------|

 |       |       |       |        |       |       |       |
|--------------------------------|--------------------------------|
|----------------0---------------|--------------------------------|
|----------------0---------------|5/------7-----------------------|
|----------------0---------------|5/------7-----------------------|
|----------------0---------------|5/------7-----------------------|
|----------------0---------------|--------------------------------|

 |       |       |       |        |       |       |       |
|--------------------------------|--------------------------------|
|--------0-----------------------|--------------------------------|
|2---------------2-------0-------|------------------------0-------|
|--------------------------------|2-------------------------------|
|--------------------------------|--------------------------------|
|--------------------------------|--------------------------------|

 |       |       |       |        |       |       |       |
|--------------------------------|--------------------------------|
|----------------0/--5-----------|0-------------------------------|
|----------------0/--5-----------|0-------------------------------|
|----------------0/--5-----------|0-------------------------------|
|----------------0/--5-----------|0-------------------------------|
|----------------0/--5-----------|0-------------------------------|

 |       |       |       |        |       |       |       |
|--------------------------------|--------------------------------|
|--------------------------------|--------------------------------|
|------------------------0-------|2-----------------------0-------|
|----------------0h--2-----------|--------------------------------|
|--------------------------------|--------------------------------|
|--------------------------------|--------------------------------|

 |       |       |       |        |       |       |       |
|--------------------------------|--------------------------------|
|----------------0---------------|8-------7-----------------------|
|----------------0---------------|7---------------7-------0-------|
|----------------0---------------|7-------------------------------|
|----------------0---------------|0-------------------------------|
|----------------0---------------|--------------------------------|

 |       |       |       |        |       |       |       |
|--------------------------------|--------------------------------|
|--------0-----------------------|--------------------------------|
|2---------------2-------0-------|------------------------0-------|
|--------------------------------|2-------------------------------|
|--------------------------------|--------------------------------|
|--------------------------------|--------------------------------|

 |       |       |       |        |       |       |       |
|--------------------------------|--------------------------------|
|----------------0/--5-----------|--------0-----------------------|
|----------------0/--5-----------|5---------------0---------------|
|----------------0/--5-----------|5-----------------------0-------|
|----------------0/--5-----------|5-------------------------------|
|----------------0/--5-----------|5-------------------------------|

 |       |       |       |        |       |       |       |
|--------------------------------|--------------------------------|
|--------------------------------|--------------------------------|
|--------------------------------|0---------------0-------0-------|
|--------------------------------|2-------------------------------|
|--------------------------------|0-------------------------------|
|--------------------------------|0-------------------------------|

 |       |       |       |        |       |       |       |
|----------------0---------------|--------------------------------|
|--------------------------------|1-------------------------------|
|--------------------------------|0---------------0-------0-------|
|--------2-----------------------|2-------------------------------|
|--------------------------------|0-------------------------------|
|--------------------------------|--------------------------------|

 |       |       |       |        |       |       |       |
|--------------------------------|--------------------------------|
|--------------------------------|--------------------------------|
|--------------------------------|------------------------0-------|
|--------------------------------|--------0-------2---------------|
|--------------------------------|0h--2---------------------------|
|--------------------------------|--------------------------------|

 |       |       |       |        |       |       |       |
|--------------------------------|--------------------------------|
|--------------------------------|0/--5-------------------0/--7---|
|--------------------------------|0/--5-------------------0/--7---|
|2-------0---------------0-------|0/--5-------------------0/--7---|
|----------------2---------------|0/--5-------------------0/--7---|
|--------------------------------|0/--5-------------------0/--7---|

 |       |       |       |        |       |       |       |
|--------------------------------|--------------------------------|
|--------------------------------|--------------------------------|
|------------------------0-------|2-----------------------0-------|
|7---------------0h--2-----------|--------------------------------|
|7-------------------------------|--------------------------------|
|7-------------------------------|--------------------------------|

 |       |       |       |        |       |       |       |
|--------------------------------|--------------------------------|
|----------------0---------------|0/--7---------------------------|
|----------------0---------------|0/--7---------------------------|
|----------------0---------------|0/--7---------------------------|
|----------------0---------------|0/--7---------------------------|
|----------------0---------------|0/--7---------------------------|

 |       |       |       |        |       |       |       |
|--------------------------------|--------------------------------|
|--------0-----------------------|0/--5-------------------0-------|
|2---------------2-------0-------|0/--5---------------------------|
|--------------------------------|0/--5---------------------------|
|--------------------------------|0/--5---------------------------|
|--------------------------------|0/--5---------------------------|

 |       |       |       |        |       |       |       |
|--------------------------------|--------------------------------|
|--------------------------------|0-------------------------------|
|----------------0---------------|0-------------------------------|
|--------------------------------|0-------------------------------|
|--------------------------------|--------------------------------|
|--------------------------------|--------------------------------|

 |       |       |       |        |       |       |       |
|--------------------------------|--------------------------------|
|--------0---0---0h--1-----------|--------------------------------|
|--------0---0---0---------------|0-------------------------------|
|--------0-------0h--2-----------|0-------------------------------|
|--------0-------0---------------|0-------------------------------|
|--------0-------0---------------|--------------------------------|




 |       |       |       |        Sezione 2A      |       |
|--------------------------------|5-------5-------5-------5-------|
|--------------------------------|3-------3-------3-------3-------|
|--------------------------------|4-------4-------4-------4-------|
|--------------------------------|0-------0-------0-------0-------|
|--------------------------------|--------------------------------|
|--------------------------------|--------------------------------|

 |       |       |       |        |       |       |       |
|5-------4---------------4-------|----------------2-------4-------|
|3-------3---------------3-------|----------------3-------3-------|
|4-------4---------------4-------|----------------0-------0-------|
|0-------0---------------0-------|--------------------------------|
|--------------------------------|--------------------------------|
|--------------------------------|--------------------------------|

 |       |       |       |        |       |       |       |
|5-------4-------2-------0-------|--------------------------------|
|3-------3-------3-------3-------|--------------------------------|
|0-------0-------0-------4-------|--------------------------------|
|------------------------4-------|--------------------------------|
|--------------------------------|--------------------------------|
|--------------------------------|--------------------------------|

 |       |       |       |        |       |       |       |
|0/--7-------------------5-------|--------------------------------|
|0/--7-------------------5-------|--------------------------------|
|0/--7-------------------5-------|--------------------------------|
|0/--7-------------------5-------|--------------------------------|
|0/--7-------------------5-------|--------------------------------|
|0/--7-------------------5-------|--------------------------------|

 |       |       |       |        Sezione 2B      |       |
|--------------------------------|5-------5-------5-------5-------|
|--------------------------------|3-------3-------3-------3-------|
|--------------------------------|4-------4-------4-------4-------|
|--------------------------------|0-------0-------0-------0-------|
|--------------------------------|--------------------------------|
|--------------------------------|--------------------------------|

 |       |       |       |        |       |       |       |
|5-------7---------------4-------|----------------2-------4-------|
|3-------5---------------3-------|----------------3-------3-------|
|4-------0---------------4-------|----------------0-------0-------|
|0-----------------------4-------|--------------------------------|
|--------------------------------|--------------------------------|
|--------------------------------|--------------------------------|

 |       |       |       |        |       |       |       |
|5-------4-------2---0h--2-------|----------------0---------------|
|3-------3-------3-------3-------|--------------------------------|
|0-------0-------0-------4-------|--------------------------------|
|------------------------4-------|--------------------------------|
|--------------------------------|--------------------------------|
|--------------------------------|--------------------------------|

 |       |       |       |        |       |       |       |
|0/--7-------------------5-------|--------------------------------|
|0/--7-------------------5-------|--------------------------------|
|0/--7-------------------5-------|--------------------------------|
|0/--7-------------------5-------|--------------------------------|
|0/--7-------------------5-------|--------------------------------|
|0/--7-------------------5-------|--------------------------------|


Sezione 3A
Gt.1 (Open G)    |       |        |       |       |       |
|--------------------------------|--------------------------------|
|--------------------------------|--------------------------------|
|------------------------0-------|2-----------------------0-------|
|----------------0h--2-----------|--------------------------------|
|--------------------------------|--------------------------------|
|--------------------------------|--------------------------------|
Gt.2 (Standard Tuning)
 |       |       |       |        |       |       |       |
|--------------------------------|--------7-------7-------7-------|
|--------------------------------|--------------------------------|
|--------------------------------|--------------------------------|
|--------------------------------|--------------------------------|
|--------------------------------|--------------------------------|
|--------------------------------|--------------------------------|



Gt.1 (Open G)    |       |        |       |       |       |
|----------------0---------------|0/--7---------------------------|
|----------------0---------------|0/--7---------------------------|
|----------------0---------------|0/--7---------------------------|
|----------------0---------------|0/--7---------------------------|
|----------------0---------------|0/--7---------------------------|
|----------------0---------------|0/--7---------------------------|
Gt.2 (Standard Tuning)
 |       |       |       |        |       |       |       |
|7-------------------------------|--------------------------------|
|--------------------------------|--------------------------------|
|--------7---------------9-------|--------7-----------------------|
|--------------------------------|--------------------------------|
|--------------------------------|--------------------------------|
|--------------------------------|--------------------------------|




Gt.1 (Open G)    |       |        |       |       |       |
|--------------------------------|--------------------------------|
|--------0-----------------------|3/--5-------------------0-------|
|2---------------2-------0-------|3/--5---------------------------|
|--------------------------------|3/--5---------------------------|
|--------------------------------|--------------------------------|
|--------------------------------|--------------------------------|
Gt.2 (Standard Tuning)
 |       |       |       |        |       |       |       |
|--------------------------------|--------7-------7-------7-------|
|--------------------------------|--------------------------------|
|--------------------------------|--------------------------------|
|--------------------------------|--------------------------------|
|--------------------------------|--------------------------------|
|--------------------------------|--------------------------------|



Gt.1 (Open G)    |       |        |       |       |       |
|--------------------------------|--------------------------------|
|--------------------------------|0-------------------------------|
|----------------0---------------|0-------------------------------|
|--------------------------------|0-------------------------------|
|--------------------------------|--------------------------------|
|--------------------------------|--------------------------------|
Gt.2 (Standard Tuning)
|       |       |       |        |       |       |       |
|7-------------------------------|--------------------------------|
|--------------------------------|--------------------------------|
|--------7-----------------------|--------------------------------|
|--------------------------------|--------------------------------|
|--------------------------------|--------------------------------|
|--------------------------------|--------------------------------|



Gt.1 (Open G)    |       |        |       |       |       |
|--------0---0---0---------------|--------------------------------|
|--------0---0---0h--1-----------|0-------------------------------|
|--------0---0---0---------------|0-------------------------------|
|--------0---0---0h--2-----------|0-------------------------------|
|--------------------------------|--------------------------------|
|--------------------------------|--------------------------------|
Gt.2 (Standard Tuning)
 |       |       |       |        |       |       |       |
|--------------------------------|--------------------------------|
|--------------------------------|--------------------------------|
|--------------------------------|--------------------------------|
|--------------------------------|--------------------------------|
|--------------------------------|--------------------------------|
|--------------------------------|--------------------------------|



Sezione 3B
Gt.1 (Open G)    |       |        |       |       |       |
|--------------------------------|--------------------------------|
|--------------------------------|--------------------------------|
|------------------------0-------|2-----------------------0-------|
|----------------0h--2-----------|--------------------------------|
|--------------------------------|--------------------------------|
|--------------------------------|--------------------------------|
Gt.2 (Standard Tuning)
 |       |       |       |        |       |       |       |
|--------------------------------|--------7-------7-------7-------|
|--------------------------------|--------8-------8-------8-------|
|--------------------------------|--------------------------------|
|--------------------------------|--------------------------------|
|--------------------------------|--------------------------------|
|--------------------------------|--------------------------------|
Gt.3 (Standard Tuning) - Palm Mute
 |       |       |       |        |       |       |       |
|--------------------------------|--------------------------------|
|--------------------------------|--------------------------------|
|--------------------------------|--------------------------------|
|--------------------------------|--------5-------5---------------|
|--------------------------------|--------------------------------|
|--------------------------------|3-----------------------3-------|



Gt.1 (Open G)    |       |        |       |       |       |
|----------------0---------------|0/--7---------------------------|
|----------------0---------------|0/--7---------------------------|
|----------------0---------------|0/--7---------------------------|
|----------------0---------------|0/--7---------------------------|
|----------------0---------------|0/--7---------------------------|
|----------------0---------------|0/--7---------------------------|
Gt.2 (Standard Tuning)
 |       |       |       |        |       |       |       |
|7-------------------------------|--------------------------------|
|--------------------------------|--------------------------------|
|--------7---------------9-------|--------7-----------------------|
|--------------------------------|--------------------------------|
|--------------------------------|--------------------------------|
|--------------------------------|--------------------------------|
Gt.3 (Standard Tuning) - Palm Mute
 |       |       |       |        |       |       |       |
|--------------------------------|--------------------------------|
|--------------------------------|--------------------------------|
|--------------------------------|--------------------------------|
|------------------------5-------|----------------5---------------|
|5---------------5---------------|--------------------------------|
|--------3-----------------------|------------------------3-------|



Gt.1 (Open G)    |       |        |       |       |       |
|--------------------------------|--------------------------------|
|--------0-----------------------|--------------------------------|
|2---------------2-------0-------|------------------------0-------|
|--------------------------------|2-------------------------------|
|--------------------------------|--------------------------------|
|--------------------------------|--------------------------------|
Gt.2 (Standard Tuning)
 |       |       |       |        |       |       |       |
|--------------------------------|--------7-------7-------7-------|
|--------------------------------|--------8-------8-------8-------|
|--------------------------------|--------------------------------|
|--------------------------------|--------------------------------|
|--------------------------------|--------------------------------|
|--------------------------------|--------------------------------|
Gt.3 (Standard Tuning) - Palm Mute
 |       |       |       |        |       |       |       |
|--------------------------------|--------------------------------|
|--------------------------------|--------------------------------|
|--------------------------------|--------------------------------|
|5-----------------------5-------|--------5-------5---------------|
|----------------5---------------|--------------------------------|
|--------3-----------------------|3-----------------------3-------|



Gt.1 (Open G)    |       |        |       |       |       |
|--------------------------------|--------------------------------|
|----------------0/--5-----------|0-------------------------------|
|----------------0/--5-----------|0-------------------------------|
|----------------0/--5-----------|0-------------------------------|
|----------------0/--5-----------|0-------------------------------|
|----------------0/--5-----------|0-------------------------------|
Gt.2 (Standard Tuning)
 |       |       |       |        |       |       |       |
|7-------------------------------|--------------------------------|
|--------------------------------|--------------------------------|
|--------7---------------9-------|--------7-----------------------|
|--------------------------------|--------------------------------|
|--------------------------------|--------------------------------|
|--------------------------------|--------------------------------|
Gt.3 (Standard Tuning) - Palm Mute
 |       |       |       |        |       |       |       |
|--------------------------------|--------------------------------|
|--------------------------------|--------------------------------|
|--------------------------------|--------------------------------|
|------------------------5-------|--------5-------5---------------|
|5---------------5---------------|--------------------------------|
|--------3-----------------------|------------------------3-------|



 Sezione 3C      |       |        |       |       |       |
|--------------------------------|--------------------------------|
|--------------------------------|--------------------------------|
|------------------------0-------|2-----------------------0-------|
|----------------0h--2-----------|--------------------------------|
|--------------------------------|--------------------------------|
|--------------------------------|--------------------------------|

Gt. 1 e 2 fanno le stesse note della Sezione 3B

 |       |       |       |        |       |       |       |
|--------------------------------|--------------------------------|
|----------------0---------------|8-------7-----------------------|
|----------------0---------------|7---------------7-------0-------|
|----------------0---------------|7-------------------------------|
|----------------0---------------|0-------------------------------|
|----------------0---------------|--------------------------------|

 |       |       |       |        |       |       |       |
|--------------------------------|--------------------------------|
|--------0-----------------------|--------------------------------|
|2---------------2-------0-------|------------------------0-------|
|--------------------------------|2-------------------------------|
|--------------------------------|--------------------------------|
|--------------------------------|--------------------------------|

 |       |       |       |        |       |       |       |
|--------------------------------|--------------------------------|
|----------------0/--5-----------|--------0-----------------------|
|----------------0/--5-----------|5---------------0---------------|
|----------------0/--5-----------|5-----------------------0-------|
|----------------0/--5-----------|5-------------------------------|
|----------------0/--5-----------|5-------------------------------|

     
Добавлено: 27.07.2013
Другие материалы по этой песне:
  • Аккорды и текст

Страница создана 27.07.2013
http://primanota.ru/luciano-ligabue/radiofreccia-chords.htm
Привет, Гость.
Предлагаем пройти революционный курс по гитаре.
Подарок от PrimaNota.Ru, забирай!