PrimaNota.ru - самый крупный в мире бесплатный архив песенных текстов, аккордов, табулатур и нот


Luciano Ligabue - Questa E' La Mia Vita.2 - таба, видео

Регистрация Запомнить меня
Войти через:  Facebook Google Twitter Vk Yandex Mail.ru

Luciano Ligabue - Questa E' La Mia Vita.2 - таба, видео

Печатать
Просмотров: 62
		   ---------------------------------------------
SONG Title: Questa è la mia vita
ARTIST/GROUP: Ligabue
TAB TRANSCRIBED By: Francesco@inwind.it
CRD: Fabio di IFML
---------------------------------------------
 
INTRO
(main riff)
e|-------------------------------------------------|
B|-------------------------------------------------|
G|-4/12-11-4/12-12b14r12-11-4/12-11----------------|
D|-------------------------------------------------|
A|-------------------------------------------------|
E|-------------------------------------------------|
 
 
(riff 2)
e|------------------------------------------------------------------------------------3-3-2-3-3-2---|
B|------------------------------------------------------------------------------------3-3-3-3-3-3---|
G|---4-4-4-4-5-5-5-5-7-7-7-7-7---4-4-4-4-5-5-5-5-7-7-7-7-7--4-4-4-4-5-5-5-5-7-7-7-7-7-2-2-2-3-3-2---|
D|---5-5-5-5-5-5-5-5-5-5-5-5-5---5-5-5-5-5-5-5-5-5-5-5-5-5--5-5-5-5-5-5-5-5-5-5-5-5-5---------------|
A|--------------------------------------------------------------------------------------------------|
E|--------------------------------------------------------------------------------------------------|
 
 
 
 
Strofa: SOL DO9 MIm RE4 RE
Rit: LAm DO SOL SOL/FA# LAm DO
 
Questa è la mia vita
 
e|--------------------------------------------------------------------|
B|--------------------------------------------------------------------|
G|4/12--4/12-12b14r12-11-4/12-11----12b14r12-11-----12b14r12-11-------|
D|-------------------------------12-------------12--------------------|
A|--------------------------------------------------------------------|
E|--------------------------------------------------------------------|

Se ho bisogno te lo dico
Sono io che guido
Io che vado fuori strada
Sempre io che pago
Non è mai successo che pagassero per me
 
 
Questa è la mia vita
e|----------------------------------------------------------------------|
B|----------------------------------------------------------------------|
G|4/12-11-4/12-12b14r12-11-4/12-11----12b14r12-11-----12b14r12-11-------|
D|---------------------------------12-------------12--------------------|
A|----------------------------------------------------------------------|
E|----------------------------------------------------------------------|

Se entri chiedimi permesso
Portami a una gita
Fammi ridere di gusto
Porta la tua vita
Che vediamo che succede a mescolarle un po'
Am 
E ora che ci sei
C
Dato che ci sei
G G/F# 
Fammi fare un giro su chi non son stato mai
Am
Dato che ci sei
C
Come io vorrei
 
(riff 2)
e|------------------------------------------------------------------------------------3-3-2-3-3-2---|
B|------------------------------------------------------------------------------------3-3-3-3-3-3---|
G|---4-4-4-4-5-5-5-5-7-7-7-7-7---4-4-4-4-5-5-5-5-7-7-7-7-7--4-4-4-4-5-5-5-5-7-7-7-7-7-2-2-2-3-3-2---|
D|---5-5-5-5-5-5-5-5-5-5-5-5-5---5-5-5-5-5-5-5-5-5-5-5-5-5--5-5-5-5-5-5-5-5-5-5-5-5-5---------------|
A|--------------------------------------------------------------------------------------------------|
E|--------------------------------------------------------------------------------------------------|
 
Questa è la mia vita
 
e|-----------------------------------------------------------------|
B|-----------------------------------------------------------------|
G|4/12-11-4/12-11-12-14-12-11-----12b14r12-11-----12b14r12-11------|
D|----------------------------12-------------12--------------------|
A|-----------------------------------------------------------------|
E|-----------------------------------------------------------------|
 
Sono quello che ci pensa
Porto un paio d'ore
Una notte bella densa
Trattamela bene
Che al momento ho solo questa
E poi vedremo poi
Questa è la mia vita

e|----------------------------------------------------------------------|
B|----------------------------------------------------------------------|
G|4/12-11-4/12-12b14r12-11-4/12-11----12b14r12-11-----12b14r12-11-------|
D|---------------------------------12-------------12--------------------|
A|----------------------------------------------------------------------|
E|----------------------------------------------------------------------|

Certi giorni non si batte
Certi altri meno
È così che va per tutti
Certi giorni è poca
Certi giorni sembra troppa
E invece non lo è mai

Am 
E ora che ci sei
C
Dato che ci sei
G G/F# 
Fammi fare un giro su chi non son stato mai
Am
Dato che ci sei
C
Come io vorrei
 
 
(riff 2)
e|------------------------------------------------------------------------------------3-3-2-3-3-2---|
B|------------------------------------------------------------------------------------3-3-3-3-3-3---|
G|---4-4-4-4-5-5-5-5-7-7-7-7-7---4-4-4-4-5-5-5-5-7-7-7-7-7--4-4-4-4-5-5-5-5-7-7-7-7-7-2-2-2-3-3-2---|
D|---5-5-5-5-5-5-5-5-5-5-5-5-5---5-5-5-5-5-5-5-5-5-5-5-5-5--5-5-5-5-5-5-5-5-5-5-5-5-5---------------|
A|--------------------------------------------------------------------------------------------------|
E|--------------------------------------------------------------------------------------------------|
 
Questa è la mia vita
Tieniteli tu i consigli
Io non l'ho capita
Figurati se tu fai meglio

e|-----------------------|
B|-8---7-----------------|
G|---------7-------------|
D|--------------7h9------|
A|-----------------------|
E|-----------------------|

Porta la tua vita
Che vediamo che succede a mescolarle un po'
 
Am 
E ora che ci sei
e|8/10-8/10--------------8/10---------------------------------|
B|-------------12--10--8--------------------------------------|
G|------------------------------------------------------------|
D|------------------------------------------------------------|
A|------------------------------------------------------------|
E|------------------------------------------------------------|
C Dato che ci sei
G G/F# 
Fammi fare un giro su chi non son stato mai
Am
Dato che ci sei
C
Come io vorrei
 
 
(riff 2)
e|------------------------------------------------------------------------------------3-3-2-3-3-2---|
B|------------------------------------------------------------------------------------3-3-3-3-3-3---|
G|---4-4-4-4-5-5-5-5-7-7-7-7-7---4-4-4-4-5-5-5-5-7-7-7-7-7--4-4-4-4-5-5-5-5-7-7-7-7-7-2-2-2-3-3-2---|
D|---5-5-5-5-5-5-5-5-5-5-5-5-5---5-5-5-5-5-5-5-5-5-5-5-5-5--5-5-5-5-5-5-5-5-5-5-5-5-5---------------|
A|--------------------------------------------------------------------------------------------------|
E|--------------------------------------------------------------------------------------------------|
 
 
outro
e|------------------------------------------------------------|
B|------------------------------------------------------------|
G|----0-----0-----0------0------0--0--0-----------------------|
D|------------------------------------------------------------|
A|------------------------------------------------------------|
E|-3-----3-----3-----3------3---------------------------------|

e|------------------------------------------------------------|
B|------------------------------------------------------------|
G|----0-----0-----0------0------0--0--0-----------------------|
D|------------------------------------------------------------|
A|-3-----3-----3-----3------3---------------------------------|
E|------------------------------------------------------------|

e|------------------------------------------------------------|
B|------------------------------------------------------------|
G|----0-----0-----0------0------0--0--0-----------------------|
D|-2-----2-----2-----2------2---------------------------------|
A|------------------------------------------------------------|
E|------------------------------------------------------------|

e|------------------------------------------------------------|
B|------------------------------------------------------------|
G|-----2---2---4---2---0--------------------------------------|
D|--0---------------------------------------------------------|
A|------------------------------------------------------------|
E|------------------------------------------------------------|

      
Добавлено: 09.08.2013
Другие материалы по этой песне:
  • Аккорды и текст

Страница создана 09.08.2013
http://primanota.ru/luciano-ligabue/questa-e-la-mia-vita2-chords.htm
Привет, Гость.
Предлагаем пройти революционный курс по гитаре.
Подарок от PrimaNota.Ru, забирай!