PrimaNota.ru - самый крупный в мире бесплатный архив песенных текстов, аккордов, табулатур и нот


Luciano Ligabue - Quella Che Non Sei - текст песни, таба, видео

Регистрация Запомнить меня
Войти через:  Facebook Google Twitter Vk Yandex Mail.ru

Luciano Ligabue - Quella Che Non Sei - текст песни, таба, видео

Печатать
Просмотров: 82
		   ~~~~~~~~~~~~~~~~~~
QUELLA CHE NON SEI
~~~~~~~~~~~~~~~~~~

[Intro]
(chitarra acustica)

e:---------------------0----|
B:----------0-3-------------|
G:--------2------0----------|
D:--2--2------------2-------|
A:--------------------------|
E:--------------------------|

[aggiunta di Stefano Bologna]

A me sembra che l'inizio di quella che non sei potrebbe suonare bene anche
cosi'

e ----------------------------------------------
B-----------------------------------------------
G-----------------------------------------------
D------------------0-----------------------2----
A-----------2-----------0-----------------------
E---0--0--------------------3-------0-----------

oppure, come all'inizio di alcune esecuzioni di capitan Fede

e----------------------------------------------------------------------
B----------------------------------------------------------------------
G----------------------------------------------------------------------
D-------------------------------------------------------0------------2-
A-------------2---0--------------2---0-----------2---------------------
E----0---0-------------0---0-------------0--0------------3--0----------

Ancora un'altra versione tra cui scegliere (grazie a Fulvio):

e:-----------------------|
B:-----------------------|
G:-----------------------|
D:-----------------------|
A:------------5--------7-|
E:-0-0----5-7----3-0-----|


(Scusate se per pigrizia non trascrivo tutti gli accordi, ma e'
proprio tutta uguale!)

[strofe]
[la TAB forse non e' esatta al 100% ma comunque *suona* bene]

   Em           C              G           D
e:---------0-----------0-----|--------3------------2------|
B:------------0-----------1--|-----------0------------3---|
G:---------------------------|------------------2---------|
D:---------------------------|----------------0-----------|
A:---2--2--------3--3--------|--2--2--------0-------------|
E:---------------------------|----------------------------|


Em       C
Io ti ho vista gia'
G              D            E
eri in mezzo a tutte le parole
C              G           D
che non sei riuscita a dire mai.
Eri in mezzo a
una vita che poteva andare
non si sapeva dove...

[rit]
[Qui la TAB dovrebbe essere giusta]

    Em          C              G           D
e:--0--------0--------0-----|--3--------3--------2-----|
B:-----0--------1--------1--|-----0--------3--------3--|
G:--------0--------0--------|--------0--------2--------|
D:--------------------------|--------------------------|
A:--------------------------|--------------------------|
E:--------------------------|--------------------------|

Ti ho vista fare giochi con lo specchio
e aver fretta di esser grande
e poi voler tornare indietro
              C     C
quando non si puo'.
               Em
Quella che non sei
                 C
quella che non sei non sei
G
ma io sono qua
 D
e se ti bastera'.
Quella che non sei e non sarai
a me bastera'.
C'e' un posto dentro te in cui fa freddo
e' il posto in cui nessuno e' entrato mai
               Em A9  Em A9  Em A9  G D
quella che non sei

   Em    A9           G   D
e:------------      ---------
B:-------0----      ---------
G:---------2-- (x3) --0------
D:-2--2-------      ------4--
A:------------      ---------
E:------------      ---------


Io ti ho vista gia'
eri in mezzo a tutte le tue scuse
senza saper per cosa.
Eri in mezzo a
chi ti dice scegli: *O troia o sposa*.

[rit]
Ti ho vista vergognarti di tua madre
fare a pezzi il tuo cognome
sempre senza disturbare
              C   C
che non si sa mai.
               Em
Quella che non sei
                 C
quella che non sei non sei
G
ma io sono qua
 D
e se ti bastera'.
Quella che non sei e non sarai
a me bastera'.
C'e' un posto dentro te che tieni spento
e' il posto in cui nessuno arriva mai
               Em A9  Em A9  Em A9  G D
quella che non sei.

[solo]
[grazie a Raffaele "MaDeT" d'Ettorre e a Daniele (kikkko)]

                1                                     2
|--------------------------------------------|------------------------------
|--------------------------------------------|------------------------------
|-3/5---2--0-------0/2\0---------------------|-------------------------0h2--
|-------------3------------3--0---0-0---3----|--0h3--5---0h3---5----0-------
|------------------------------------------3-|------------------------------
|--------------------------------------------|------------------------------
           2                                    3
|----------------------------|------------------------------5---------8----|
|--1--1/3-------1----3/5---1-|-----------------0h1----1h3-------3/5--------|
|----------2-----------------|------------0h2------------------------------|
|----------------------------|--0h3--5-------------------------------------|
|----------------------------|---------------------------------------------|
|----------------------------|---------------------------------------------|

                        4
|-------------------------------3---------------------------|
|-------1---3-------1----3/5---------5\3----1----1/3-----1--|
|--0h2----------2-------------------------------------2-----|
|-----------------------------------------------------------|
|-----------------------------------------------------------|
|-----------------------------------------------------------|

            5                           6
|---------------------------------|------0-------0-------0--------0--------|
|---------------------------------|----------------------------------------|
|-----0-----0-----0-----0-----0---|-2/4-----2/4-----2/4-----2/4-------4----|
|---------------------------------|----------------------------------------|
|-5/7---5/7---5/7---5/7---5/7---7-|----------------------------------------|
|---------------------------------|----------------------------------------|


           7                        8

|-/5---/5---/5---/5-|----5---5---3---3----5---5---3/5---3---1--------------|
|-/5---/5---/5---/5-|--5---5---3---3----5---5------------------3-----------|
|-------------------|------------------------------------------2-----------|
|-------------------|------------------------------------------------------|
|-------------------|------------------------------------------------------|
|-------------------|------------------------------------------------------|


Daniele, i copyright mettili te magari :)

Transcribed by: miki79

------------------------|--------------------------|--------------------------
-3-0--------------------|-------------3-5---3-5b-3-|--------------------------
-----2-0-2br2-0---2---0-|-------0-2/4-----4--------|--------------------------
----------------2---2---|-0-0h2--------------------|--------------------------
------------------------|--------------------------|--------------------------
------------------------|--------------------------|--------------------------

                               Em              C
-----------------------------------10--------------|--------------------------
---------3---5---7----8-10---8-10b----10b-8-10---8-|-------8-----8-----8----8-
-----0-------------/9------9-------------------9---|-7-7h9---7h9---7h9---7h9--
-0h2-/-4-/-5-/-7-----------------------------------|--------------------------
---------------------------------------------------|--------------------------
---------------------------------------------------|--------------------------

 G                 D
--------12--------12--------12-|----------------|-----------------------------
-----12--------12--------12----|----------------|-15-15-15-15--14-14-14-14----
-14b-------14b-------14b-------|-14bv-14bv-14bv-|-16-16-16-16--15-15-15-15----
-------------------------------|----------------|-----------------------------
-------------------------------|----------------|-----------------------------
-------------------------------|----------------|-----------------------------


----------------------|-------------------------------------------------------
-15-15-15-15----------|-------------------------------------------------------
-16-16-16-16-14br12---|-------------------------------------------------------
-------------------14-|-------------------------------------------------------
----------------------|-------------------------------------------------------
----------------------|-------------------------------------------------------

--
                           Miki79
               voltron17@hotmail.com

                  http://surf.to/miki79
         http://members.xoom.it/miki79/
     Tutto su Ligabue, chitarre e musica


[rit]
Ti ho vista stare dietro a troppo rimmel
dietro un'altra acconciatura
eri dietro una paura che non lasci mai.
               Em
Quella che non sei
                 C
quella che non sei non sei
G
ma io sono qua
 D
e se ti bastera'.
Quella che non sei e non sarai
a me bastera'.
C'e' un posto dentro te in cui fa freddo
e' il posto in cui nessuno e' entrato mai
quella che non...

Em    C
A la la la la
G           D        Em  C  G D
la la la la la la la la
Em    C
A la la la la
G           D        Em   C  G D B7 Em
la la la la la la la laaa
+-+-+-+-+-+-+-+-+-+-+-+-+-+-+-+-+-+-+-+-+-+-+-+-+-+-+-+-+-+-+-+-+-




========
From: "Dario"  freddie80@libero.it>
Date: Wed, 18 Dec 2002 16:23:28 +0100
--------


[Intro] Quella che non sei (suona come il disco!)
(chitarra distorta)

e:------------------------------------|
B:------------------------------------|
G:------------------------------------|
D:---------------0--------------2-----|
A:---------0-2------------------------|
E:---0-0------------3(4)-0------------|


Dario da Palermo

     
Добавлено: 07.09.2013
Другие материалы по этой песне:
  • Аккорды и текст

Страница создана 07.09.2013
http://primanota.ru/luciano-ligabue/quella-che-non-sei-chords.htm
Привет, Гость.
Предлагаем пройти революционный курс по гитаре.
Подарок от PrimaNota.Ru, забирай!