PrimaNota.ru - самый крупный в мире бесплатный архив песенных текстов, аккордов, табулатур и нот


Luciano Ligabue - Miss Mondo (Album) - таба, видео

Регистрация Запомнить меня
Войти через:  Facebook Google Twitter Vk Yandex Mail.ru

Luciano Ligabue - Miss Mondo (Album) - таба, видео

Печатать
Просмотров: 60
		   --------
E scuso per il ritardo con cui lo posto, soprattutto nei riguardi di chi mi
ha mandato con tanta solerzia le TAB per poi vederele ammuffire.


Tratto dal file completo. Per maggiori info: http://go.to./tigers

==================================================================
                   ALBUM MISS MONDO (1999)
==================================================================

Aggiornamenti al 4/11/99
- B viene e si va: aggiunte TAB
- Almeno credo: aggiunte TAB, rivisitati gli ACCORDI
- E: aggiunto il solo, rivisitati gli accordi
- Baby, è un modo super: aggiunte TAB
- Una vita da mediano: aggiunte TAB
- Kay è stata qui: aggiunta una TAB
- Sulla mia strada: aggiunta la canzone, con accordi e TAB
- Forse mi trovo: aggiunta la canzone con gli accordi
- Miss Mondo 99: aggiunta la canzone, con gli accordi e una TAB

~~~~~~~~~~~~~~~~
SI VIENE E SI VA
~~~~~~~~~~~~~~~~
(Posted by -Little Hawk-)

(Tab di Alessandro Marini)


  [Intro]SOL   DO   SOL          DO
e:-----------------|-----------------|
B:-3-3-3-3-3-3-1-1-|-3-3-3-3-3-3-1-1-|
G:-0---------------|-0---------------| x 2
D:-0---------------|-0---------------|
A:-----------------|-----------------|
E:-----------------|-----------------|
   1 . 2 . 3 . 4 .   1 . 2 . 3 . 4 .

SOL             DO
  B viene e si va comunque ballando
Em                  RE            Sol
  pensando una vita forse non bastera'
                  DO       Em   RE       C
  si viene e si va allora tenendo la vita per la coda
 Em      RE      DO
  nel caso che Dio non sia in sede

  B viene e si va tenendoci stretti
  tenendoci dritti che cosi' si fa
  si viene e si va per sempre
  fra gusto e dolore più o meno venendo nel mondo più o meno

      SOL           DO              Em
[Rit.] Vai vieni e vai come puoi/{vuoi}
            DO      RE      SOL
       nasci solo e solo andrai
                      DO                  Em         RE           SOL
       è in mezzo che hai quel gran bel traffico, il traffico che puoi

 SOL                  DO               MIm
  B viene e si va cercandosi un senso
                       DO      RE          [Fill]
  che poi alla fine il senso è tutto qua

[Fill]SOL    DO         SOL       DO        MIm    RE     DO           SOL
e:---------|-----------|---------|---------|-------------|------------|-----
-
B:---------|-----------|---------|---------|-0-----3-----|-1----------|-----
-
G:-/7------|----/9-\4--|/7-------|--\5-4-0-|-0-----2-----|-0-----5--4-|---/7
-
D:---------|-----------|---------|---------|-2-----0-----|-2----------|-----
-
A:---------|-----------|---------|---------|-2-----------|-3----------|-----
-
E:---------|-----------|---------|---------|-------------|------------|-----
-
   1 2 3 4   1 2 3  4    1 2 3 4   1 2 3 4   1  2  3  4    1  2  3  4

  B viene e si va di umana commedia
  che c'è chi la spiega e c'è chi vive e va
  si viene e si va comunque
  fischiando cantando il motivo ci serve comunque un motivo

[Rit.]  Vai vieni e vai come puoi
        nasci solo e solo andrai
        è in mezzo che hai quel gran bel traffico,
       DO                                                        [Solo]
        il traffico il traffico il traffico il traffico che vuoi

[Solo]
[Suonato 1/8 sotto la tonalità originale]
[Per eseguire in tonalità originale, partire dal 12mo capotasto]
 SOL               DO                MIm                DO      RE
e:8^10-8----------|-8^10-8-----------|-----------------|------------------|
B:-------8--------|------------------|-----------------|-8--/10--8---10-8-|
G:----------------|--------9---------|-7--/9---7---9-7-|------------------|
D:----------------|------------------|-----------------|------------------|
A:----------------|------------------|-----------------|------------------|
E:----------------|------------------|-----------------|------------------|
   1 . 2 . 3 . 4 .  1 . 2  . 3 . 4 .   1 . 2 . 3 . 4 .   1 . 2 . 3 . 4  .

  SOL               DO                MIm      RE      DO
e:-----------------|-----------------|----------------|------------|
B:-----------------|-8--/10--8--10-8-|----------------|------------|
G:-7--/9---7---9-7-|-----------------|-------7---7-9--|-9-------/12|
D:-----------------|-----------------|---7-9---9------|------------|
A:-----------------|-----------------|10--------------|------------|
E:-----------------|-----------------|----------------|------------|
   1 . 2 . 3 . 4 .   1 . 2 . 3 . 4 .   1 . 2 . 3 . 4    1  2  3  4

  MIm      RE       DO           SOL
e:----------------|-------------|-------|
B:----------------|-------------|-------|
G:-------7---7-9--|-9-------/12-|-16----|
D:---7-9---9------|-------------|-------|
A:10--------------|-------------|-------|
E:----------------|-------------|-------|
   1 . 2 . 3 . 4    1  2  3  4


      Vai vieni e vai come vuoi
      nasci solo e solo andrai
      è in mezzo che hai quel gran bel traffico
      il traffico il traffico il traffico il traffico che puoi

  [Outro]SOL    DO          MIm           DO  RE   SOL          DO
e:------------|------------|------------|---------|------------|---------|
B:------------|------------|------------|---------|------------|---------|
G:-4----/9-/7-|\4----/9-\7-|-4----/9-\7-|-5-7-4-5-|-7----/9-\7-|-4----/7-|
D:------------|------------|------------|---------|------------|---------|
A:------------|------------|------------|---------|------------|---------|
E:------------|------------|------------|---------|------------|---------|
   1  2  3  4   1  2  3  4   1  2  3  4   1 2 3 4   1  2  3  4   1 2 3 4

  MIm  RE   DO         MIm RE   DO        SOL      [Rip.Intro]
e:---------|---------|---------|---------|-----|
B:---------|---------|---------|---------|15---|
G:-16------|------/7-|-16------|---------|-----|
D:---------|---------|---------|---------|-----|
A:---------|---------|---------|---------|-----|
E:---------|---------|---------|---------|-----|
   1 2 3 4   1 2 3 4   1 2 3 4   1 2 3 4



============================================================================
~~~~~~~~~~~~~
UNO DEI TANTI
~~~~~~~~~~~~~

(posted by -Little Hawk-)



A9
 E' stato un piacere
Do#-                 D
 parlare comunque per me
                     Bm
 e di li' qualcuno c'era?
                   A9
 di li' qualcuno c'e' ?

 E' sempre un piacere
Do#-                    D
 con l'onda che passa di qui
                 Bm
 e qui sentire l'onda sentire che
       D           Do#-          E
 son quello che ti tiene su lo specchio
      D          Do#-
 ma quello che ci vedi e' sempre
    E
 e solo quello che decidi

   A                      Do#-                  D
   qui uno dei tanti e'... li' ? Li' ci sentite bene ?
                   Bm
   Li' vi sentite bene ? Li' lo sentite che
   A                     Do#-
   qui uno dei tanti... e li' ?
                      D
   Non ho granche' da dire
                      Bm
   ma quello mi viene bene
                   D
   mi viene quello li'
             Do#-          E
   sempre che serva a qualcosa
            D             Do#-            E
   sempre che... non lo so... serve a qualcosa uno
                       A
   in mezzo a tanti e li' ?

                 Do#-
 E' un nastro che gira
                           D
 su un mondo che gira di piu'
                         Bm
 vorresti star giu' un giro
                    A
 o vuoi girare di piu' ?
                      Do#-
 E' sempre un piacere
                             D
 ma qui si fa quel che si puo'
                    Bm
 se quello puo' bastare
 se invece no...

         D  (etc..)
 son quello che ti tiene su lo specchio ma
 quello che ci vedi e' sempre
 e solo quello che decidi

  A (etc..)
   Qui uno dei tanti e. li' ? li' ci sentite bene ?
                                          D Do#- E D Do#- A Do#- D Bm
   Li' vi sentite bene ? Li' vi sentite cosi'...
   A

   Qui uno dei tanti e .li' ? Non ho granche' da dire
   ma quello mi viene bene mi viene quello li'

   sempre che serva a qualcosa
   sempre che. certo che serve a qualcosa uno
                       A    Do#- D Bm A
   in mezzo a tanti e li'.
===================================================================
~~~~~~~~~~~~
ALMENO CREDO
~~~~~~~~~~~~
CRD: Fabrizio Cardinale
     rivisitati da Alessandro Marini
TAB: Tigers & Alessandro Marini

e:--------7---------
B:-4h5--7---7--5-4--
G:------------------
D:------------------
A:------------------
E:------------------

[Versione alternativa per 2 chitarre]
  [Intro Guit 1]
e:---------|-7-----|---------|-7-----|----------|-7-----|---------|-7-----|
B:---4^5-7-|---7---|---4^5-7-|---7---|----4^5-7-|---7---|---4^5-7-|---7---|
G:---------|-----4-|---------|-----4-|----------|-----4-|---------|-----4-|
D:---------|-------|---------|-------|----------|-------|---------|-------|
A:---------|-------|---------|-------|----------|-------|---------|-------|
E:---------|-------|---------|-------|----------|-------|---------|-------|
   1 2 . 3   1 2 3   1 2 . 3   1 2 3    1 2 . 3   1 2 3   1 2 . 3   1 2 3
e:---------|-------|---------|-------||---------|-7-----|---------|-7-----|
B:---------|-------|---------|-------||---4---7-|---7---|---7---4-|---7---|
G:---------|-------|---------|-------||-4-------|-----4-|-4-------|-----4-|
D:---------|-------|---------|-------||---------|-------|---------|-------|
A:---------|-------|---------|-------||---------|-------|---------|-------|
E:---------|-------|---------|-------||---------|-------|---------|-------|
                                      [Guit 2/Outro]

 SI                                     SI/LA#
  Credo che ci voglia un Dio ed anche un bar
 SOL#m7                            FA#
  Credo che stanotte ti verrò a trovare
            MI                        SI             LA     MI
  Per dirci tutto quello che dobbiamo dire o almeno credo

 SI                                   SI/LA#
  Credo proprio che non sia già tutto qui
 SOL#m7                             FA#
  E certi giorni invece credo sia così
               MI                               SI             LA      MI
  Credo al tuo odore e al modo in cui mi fai sentire a questo credo

      SOL#m7                               FA#
[Rit]  Qua nessuno c'ha il libretto d'istruzioni
                   MI
       credo che ognuno si faccia il giro
       SI         /LA#
       Come viene a suo modo
      SOL#m7                               FA#
       Qua non c'è mai stato solo un mondo solo
                    MI
       credo a quel tale che dice in giro
            SI            /LA#
       Che l'amore porta amore
        SI    SI/LA#  SOL#m7  FA#
       credo
       LA                   MI                  SI    SI/LA#  SOL#m7  FA#
       Se ti serve chiamami scemo ma io almeno credo
       LA                   MI
       Se ti basta chiamami scemo che io almeno

  Credo nel rumore di chi sa tacere

  Che quando smetti di sperare inizi un po' a morire
  Credo al tuo amore e a quello che mi tira fuori o almeno credo

  Credo che ci sia qualcosa chiuso a chiave
  E che ogni verità può fare bene e fare male
  Credo che adesso mi devi far sentir le mani che a quelle credo

[Rit]  Qua nessuno c'ha il libretto d'istruzioni
       credo che ognuno si faccia il giro
       Come viene a suo modo
       Qua non c'è mai stato solo un mondo solo
       credo a quel tale che dice in giro
       Che l'amore chiama amore

  [Solo]
e:-------|---------|-------|----------|---------|---------|-------|---------
|
B:-------|---------|-------|----------|---------|---------|-------|---------
|
G:-------|-8-\4----|-------|-8-\4-----|---------|-8-\4----|-------|-8-\11---
|
D:-------|---------|-------|----------|---------|---------|-------|---------
|
A:-------|---------|-------|----------|---------|---------|-------|---------
|
E:-------|---------|-------|----------|---------|---------|-------|---------
|
   1 2 3   1  2  3   1 2 3   1  2  3    1  2  3   1  2  3   1 2 3   1  2  3
e:-------|---------|-------|----------|---------|---------|-------|---------
|
B:-------|---------|-------|----------|---------|---------|-------|---------
|
G:-------|-8-------|-------|----------|---------|-8-------|-------|---------
|
D:-------|-9--9----|-------|----------|-9-------|-9--9----|-------|---------
|
A:-------|-9-------|-------|----------|-9-------|---------|-------|---------
|
E:-6-----|---------|-------|----------|-6-------|---------|-------|---------
|


  | Questa parte 2 volte                                       |
e:|-------------|------------------|-------------|------------||
B:|-------------|------------------|-------------|------------||
G:|-------------|-8----\4(2nda-\11)|-------------|-8--\4------||
D:|-------------|------------------|-------------|------------||
A:|-------------|------------------|-------------|------------||
E:|-------------|------------------|-------------|------------||
    1 . 2 . 3 .   1  .  2  .  3 .    1 . 2 . 3 .   1   2   3
e:|-------------|------------------|-------------|------------||
B:|-------------|------------------|-------------|----/9---12-||
G:|-8-9-8-9-8---|-8--9-/11-8-------|-8-9-8-9-8---|-11---------||
D:|-----------9-|-------------9----|-----------9-|------------||
A:|-------------|------------------|-------------|------------||
E:|-------------|------------------|-------------|------------||


[Rit]  Qua nessuno c'ha il libretto d'istruzioni
       credo che ognuno si faccia il giro
       Come viene a suo modo
       Qua non c'è mai stato solo un mondo solo
       credo a quel tale che dice in giro
       Che l'amore porta amore
       credo
       Se ti serve chiamami scemo ma io almeno credo
       Se ti basta chiamami scemo che io almeno

[Outro]
   1 2 . 3   1 2 3   1 2 . 3   1 2 3
e:---------|-7-----|---------|-7-----|
B:---4---7-|---7---|---7---4-|---7---|
G:-4-------|-----4-|-4-------|-----4-| x 2
D:---------|-------|---------|-------|
A:---------|-------|---------|-------|
E:---------|-------|---------|-------|


========================================================================
~
E
~

 (posted by -Little Hakw-)


 [Intro]
G:------|-----------------|--------------|-----------------|--------------|
D:------|-----------------|------------3-|-0-0-------------|--------------|
A:-0----|--------(0)0-1-0-|-1-1------1---|--------(0)0-1-0-|-1-1------0---|
E:----3-|-1-1-------------|--------------|-----------------|------------3-|
   3  4   1 . 2  3  . 4 .   1 . 2  3 . 4   1 . 2  3  . 4 .   1 . 2  3 . 4


 (FA)
  E il cielo non smette
 (SIb)
  e sono in gran tiro
   (REm)                (SIb)
  le tipe che entrano al Vox
   (FA)
  oppure al Corallo
   (SIb)
  e più in là c'è Kingo
       (REm)                (SIb)
  che è già nudo in nome del rock
         DO             REm
    e in una balera son già all'hully gully
         SIb              FA                   |SOLm     LAm|SIb
    l'orchestra da ballo c'ha un'altra serata a Pavia

                      |FA   |SIb  |REm  |SIb  |
[Rit]  E ci sono anch'io

  E c'è un'altra rissa
  un rito, una messa
  che puzza un bel po' di routine

  o è solo un bisogno
  una specie di impegno
  che prendi con non si sa chi
    e una ha lasciato il suo peggio in bottega
    si mette un ombretto che inquieta ma è rosso allegria

[Rit]  E ci sono anch'io

    FA        SIb
   qui la notte picchia bene
  FA             SIb
   su chi molla e su chi tiene
  FA           SIb
   qui la notte picchia forte
  FA           SIb          [Solo]
   gatti svelti vite storte

[TAB di Alessandro Marini]

[Solo]FA            SIb               REm
e:-----------------|-----------------|---------------------|
B:-----------------|-----1---3-1-----|-------10\8\6--8-6---|
G:-----------------|---3---3-----3---|---------------------|
D:---------7-3-----|-----------------|---------------------|
A:--/3-5-8---------|-----------------|---------------------|
E:-----------------|-----------------|---------------------|
   1 . 2 . 3 . 4 .   1 . 2 . 3 . 4 .   1 . 2  .   3  . 4 .
e:-5---------5-5-5-|-6---------6-6-6-|-5-------------5-5-5-|
B:-6---------6-6-6-|-----------6-6-6-|---------------6-6-6-|
G:-5---------------|-----------------|---------------------|
D:-----------------|-----------------|---------------------|
A:-----------------|-----------------|---------------------|
E:-----------------|-----------------|---------------------|

   SIb                  FA
e:--------------------|----------|
B:--------------------|-8--------|
G:-------7-/10-7-10-7-|----10----|
D:--------------------|----------|
A:--------------------|----------|
E:--------------------|----------|
   1 . 2 .  3  .  4 .   1  .
e:-6--------6-----8---|----------|
B:----------6-----6---|----------|
G:--------------------|----------|
D:--------------------|----------|
A:--------------------|----------|
E:--------------------|----------|


  e tutto è perfetto
  e il mondo è in affitto
  e il cielo non smetterà mai

  e in faccia hai il riflesso
  di un teleservizio
  su missili, bombe e cowboy
    e in faccia c'hai tutti i pregi e i difetti
    che sono in parte condanna e un po' compagnia

[Rit]  E ci sono anch'io

   qui la notte picchia bene
   su chi molla e su chi tiene
   qui la notte picchia forte
   gatti svelti vite storte

[Outro]  |FA   |SIb  |REm  |SIb  |FA

=============================================================
~~~~~~~~~~~~~~~~~~~~~~~
BABY, E' UN MONDO SUPER
~~~~~~~~~~~~~~~~~~~~~~~

(posted by -Little Hakw-)

INTRO:  Trillo di telefono (Ab ->  16° tasto del E cantino)

        ------------------------------
        ------------------------------
        ------------------------------
        -----4-4---2-4---2-4-2--------
        ---2-------------------4------

[Intro/Bass Outro]
[Versione alternativa di Alessandro Marini]
               +-3-+
G:-------------------|
D:-----4---4---------| X 4
A:-------------4-2---|
E:-2-----2---2-----5-|
   1 . 2 . 3 . 4

(FA#)
 Baby il mondo ha sempre ragione
 supermostri e superbuoni
 super-ate i nuovi confini

 Billy siamo qua ed aspettiamo
 dacci il nostro chip quotidiano
 siamo sempre ciò  che mangiamo
   SI
   portati dietro te nel nuovo ordine
   se no si sballa il target

 FA#
 superstragi senza risposta
 nuove nuove dal superteste
                         [stop]
 anni '80 a grande richiesta
  sicuro che ti fai il pieno di super ?

       FA#
[Rit]  Cos'è che non va ?
       SI
       Cosa non va ?
         MI         LA    FA#
       Baby, è un mondo super !

        Cos'è che non va ?
       SI
       Cosa non va ?
         MI         LA    FA#    [Fill]
       Baby, è un mondo super !

 [Fill/Guit Outro]
   FA#
e:-----------------|-----------------|-----------------|-----------------||
B:-----7-----5-----|-----7-----5-----|-----7-----5-----|-----7-----5-----||
G:-----------------|-----------------|-----------------|-----------------||
D:-4/5---4/5-------|-4/5---4/5-------|-4/5---4/5-------|-4/5---4/5-------||
A:-----------------|-----------------|-----------------|-----------------||
E:-----------------|-----------------|-----------------|-----------------||
   1 . 2 . 3 . 4 .   1 . 2 . 3 . 4 .   1 . 2 . 3 . 4 .   1 . 2 . 3 . 4 .


 A cultura ti alza la voce
 tre miliardi di analfabeti
 per una "cultura di pace"

 Cercati il tuo karma nel sito
 fatti un clone maleducato
 non lasciare a casa l'invito
   sotto la chimica la capra lievita
   e si modifica bene

 Baby il mondo ha sempre ragione
 puoi gonfiarlo di silicone
 ma alla fine ha sempre ragione
  sicuro che mi fai il pieno di super ?

[Rit]  Cos'è che non va ?
       Cosa non va ?
       Baby, è un mondo super !
       Cos'è che non va ?
       Cosa non va ?
       Baby, è un mondo super !

  +-----                              +-----
  | 1,2                               | 3
  [Solo]MIbm        MI                |MIbm
e:-----------------|-----------------|-----------------|----/7-7--------|
B:----/7-7---------|----/9-9---------|----/7-7---------|----/9-9--------|
G:-----------------|-----------------|-----------------|----------------|
D:-----------------|-----------------|-----------------|----------------|
A:-----------------|-----------------|-----------------|----------------|
E:-6-------------6-|-7---------------|-6---------------|-7--------------|
   1 . 2 . 3 . 4 .   1 . 2 . 3 . 4 .   1 . 2 . 3 . 4 .   1 . 2 . 3 . 4 .

  FA#
e:----------------------------------|----------------------------------||
B:-------------------12----11-------|-------------------12----11-------||
G:-11-------11----------------14-11-|-11-------11----------------14-11-||
D:----11-13----11-13----------------|----13-11----13-11----------------||
A:----------------------------------|----------------------------------||
E:----------------------------------|----------------------------------||
   1     .     2     .  3  .  4  .    1     .     2     .  3  .  4  .

 È vero che ti fai il pieno di super ?

[Rit]  Cos'è che non va ?
       Cosa non va ?
       Baby, è un mondo super !
       Cos'è che non va ?
       Cosa non va ?
       Baby, è un mondo super !

       Cos'è che non va ?
       Cosa non va ?
       Baby, è un mondo super !
       Cos'è che non va ?
       Cosa non va ?
       Baby, il mondo é super !
       Baby, il mondo é super !
       Baby, il mondo é super !

[Outro][Bass+Guitar]

=================================================================
~~~~~~~~~~~~~~~~~~~
UNA VITA DA MEDIANO
~~~~~~~~~~~~~~~~~~~

Posizioni consigliate per una versione piu' facile o se non si ha un
capotasto sottomano:
[NdTigers]

 G: xx0787
 D: x57775
Am: 577555
 C: x35553

accordi da: Cristian Gabbanini  cgabbanini@cervia.com>

capo sul 5° tasto
[una mia nota personale: per fare questi accordi conviene usare una
posizione un po' strana per il re usando anulare sulla prima corda,
poi mignolo e medio sulle altre due. Cosi' facendo i passaggi fra i vari
accordi risultano molto piu' facili]

re       xx0232
la4/6    x02232
mi-7/9   022032
sol      320033

Il giro iniziale è basato sull'alternanza tra re e re2, e giocato sui bassi
degli accordi.

-2--2-0-2-0-2---
-3--3-----------
-2--2-----------
----------------
----------------
----------------

Nel ritornello, per avere un effetto simile a quello del Liga, bisogna
suonare la prima corda alternatamente a vuoto e con l'anulare sul secondo
tasto (che secondo questi accordi non dovrebbe muoversi di lì, come il
mediano. Ehm, battutaccia....).

[Versione alternativa di Alessandro Marini]
[Grazie a Tigers ed a Cristian Gabbanini]

[capo sul 5° tasto]

[Intro/Outro]RE5/9   LA4/6                    MIm7/9
e:-2---2--0-2-0-2---|-----2--0-2-0-0---------|-----2--0-2-0-2-------|
B:-3---3--3-3-3-3---|-3---3--3-3-3-3---------|-----3--3-3-3-3-------|
G:-2---2--2-2-2-2---|-2---2--2-2-2-2---------|-0---0--0-0-0-0-------|
D:-0---0------------|-2---2----------------2-|-2---2----------------|
A:------------------|------------------0^2---|-2--------------------|
E:------------------|------------------------|-0----------------0-2-|

  SOL
e:------------------|
B:-----3--3-3-3-3---|
G:-----0--0-0-0-0---|
D:-0---0--0-0-0-----|
A:-2---2------2-----|
E:-3----------------|

 re
   una vita da mediano
la4/6
   a recuperar palloni
 mi-7/9
   nato senza i piedi buoni
 sol
   lavorare sui polmoni

 re
   una vita da mediano
 la4/6
   con dei compiti precisi
 mi-7/9
   a coprire certe zone
 sol
   a giocare generosi

      re
[Rit]  lì
     la4/6
       sempre lì
     mi-7/9
       lì nel mezzo
     sol
       finchè ce n'hai stai lì

   una vita da mediano
   da chi segna sempre poco
   che il pallone devi darlo
   a chi finalizza il gioco

   una vita da mediano
   che natura non ti ha dato
   nè lo spunto della punta
   nè del 10 che peccato

[Rit]  lì
       sempre lì
       lì nel mezzo
       finchè ce n'hai stai lì

       stai lì
       sempre lì
       lì nel mezzo
       finchè ce n'hai
       finche ce n'hai
       stai lì

[Solo]SIm             RE                  SIm                 RE
e:---------|---------|-2-----2-|-----2---|---------|---------|-2-------|
B:-3-----3-|-----3---|---3-----|-3-------|-3-----3-|-----3---|-3-------|
G:---4-----|-4-------|-----2---|---2-----|---4-----|-4-------|-2-------|
D:-----4---|---4-----|---------|---------|-----4---|---4-----|---------|
A:---------|---------|---------|---------|---------|---------|---------|
E:---------|---------|---------|---------|---------|---------|---------|
   1 2 3 4   1 2 3 4   1 2 3 4   1 2 3 4   1 2 3 4   1 2 3 4   1 2 3 4
e:---------|-----2---|-5-2-----|---------|---------|-----2---|-5-2-----|
B:-------3-|---3---3-|-3---3---|-2-3-2-3-|-------3-|-3-----4-|-3---3---|
G:-----4---|-4-------|-2-----2-|---------|-----4---|-4-------|-2-----2-|
D:-----4---|---------|---------|---------|-----4---|---------|---------|
A:---------|---------|---------|---------|---------|---------|---------|
E:---------|---------|---------|---------|---------|---------|---------|

            SIm                 MIm                 MIm
e:---------|---------|---------|---------|---------|---------|---------|
B:---------|-3-----3-|-----3---|---------|---------|---------|---------|
G:---------|---4-----|-4-------|-----0---|---------|-------0-|---------|
D:---------|-----4---|---4-----|---2-----|---------|-----2---|---------|
A:-0-2-5---|---------|---------|-2-------|---------|---2-----|---------|
E:---------|---------|---------|---------|---------|-0-------|---------|
   1 2 3 4   1 2 3 4   1 2 3 4   1 2 3 4   1 2 3 4   1 2 3 4   1 2 3 4
e:---------|---------|-----2---|-5-2-----|---------|---------|---------|
B:-2-3-2-3-|-------3-|---3---3-|-3---3---|-2-3-2-3-|-3/5-3---|---------|
G:---------|-----4---|-4-------|-2-----2-|---------|---------|---/5--2-|
D:---------|-----4---|---------|---------|---------|---------|---------|
A:---------|---------|---------|---------|---------|---------|---------|
E:---------|---------|---------|---------|---------|---------|---------|

  SOL
e:---------|---------|
B:-3-------|---------|
G:-0-------|---------|
D:-0-------|---------|
A:-2-------|---------|
E:-3-------|---------|
   1 2 3 4   1 2 3 4
e:---------|---------|
B:---------|---------|
G:---------|---------|
D:---5---4-|---------|
A:---------|---0-----|
E:---------|---------|


    una vita da mediano
    da uno che si brucia presto
    perché quando hai dato troppo
    devi andare e fare posto

    una vita da mediano
    lavorando come Oriali
    anni di fatica e botte e
    vinci casomai i mondiali

[Rit]  lì
       sempre lì
       lì nel mezzo
       finchè ce n'hai stai lì
       stai lì

       sempre lì
       lì nel mezzo
       finchè ce n'hai, finchè ce n'hai
       stai lì

[Strum] |re   |la4/6  |mi-7/9  |sol   |re   |la4/6  |mi-7/9  |sol  |

[Outro]
====================================================================
~~~~~~~~~~~~~~~~
DA ADESSO IN POI
~~~~~~~~~~~~~~~~
[Posizioni accordi (NdTigers)]

   G2: 320233
D4/F#: 200233 (qui volendo potete anche usare il pollice)
  Em7: 022033
   D4: xx0233
   C9: x32033

(posted by -Little Hawk-)


Sol2          Re4/F#          Em7
 Da adesso in poi com'è che andrà
                 Re4         C9
 con te che hai detto "sono qua"

 e davvero
Sol2         Re4
 sei qua fra noi
 D
 fra noi
        Sol2
 me e lei

 tu che hai davanti quel che hai
 e comunque sia da adesso in poi
 auguri
 da me saprai
 saprai


                 C       Sol
    che vale la pena vivere
              D              Em
    mi chiederai "sì, ma perché ?"
            C           Sol               D
    so solo che ti dirò "vale la pena, vedrai"
                  Sol Re/F# Em D
    Da adesso in poi   (2 v.)


 Da adesso in poi ti aspetto qua
 che fretta che hai avuto già
 aspetta
 per te e per noi
 per te
 per noi
 non so se sarò pronto mai
 prova a esser pronto tu per noi
 ascolto:
 mi insegnerai
 che puoi

    che vale la pena vivere
    ti chiederò "dimmi perché"
    tu che non parli dirai
    "vale la pena vedrai"
    Da adesso in poi  (2 v.)

 Da adesso in poi ci proverò
 a farti avere il meglio che ho
 il peggio
 lo troverai
 da te

    ma vale la pena vivere
    mi chiederai "sì, ma perché ?"
    so solo che ti dirò
    vale la pena vedrai
    da adesso in poi (2 v.)

~~~~~~~~~~~~~~~~~
L'ODORE DEL SESSO
~~~~~~~~~~~~~~~~~

 (posted by -Little Hakw-)
 Da: Temerario  Asso70@hotmail.com>
                     X3
---------7-------7-------------
------8------10---10--8-------
----9-----9--------------------
--------------------------------
--------------------------------
--------------------------------

B fa presto a cantare...................cose
                             X2
----------7-------7-----------------
-------8------10---10---8----------
----9-------9------------------------
--------------------------------------
--------------------------------------
--------------------------------------
                         x2
--------------7--------7------------
-----------8-------10---10--8------
--------7-------7-------------------
------------------------------------
------------------------------------
------------------------------------

B fa un po' meno presto ...................così
                             X2
----------7-------7-----------------
-------8------10---10---8----------
----9-------9------------------------
--------------------------------------
--------------------------------------
--------------------------------------

                         x2
--------------7--------7------------
-----------8-------10---10--8------
--------7-------7-------------------
------------------------------------
------------------------------------
------------------------------------
......il seguito......boh....!!!


Em                             C               Sol
 B fa presto a cantare che il tempo sistema le cose
    Em                         C                Sol
 si fa un po' meno presto a convincersi che sia così
       Em                C
 io non so se è proprio amore:
          Sol         A
 faccio ancora confusione
         C                D            Em  D
 so che sei la più brava a non andartene via
  A   C
 forse ti ricordi
   D     Sol
 ero roba tua


                Em             C              A
    non va più via l'odore del sesso che hai addosso
    Sol            Em              C          A
    si attacca qui all'amore che posso che io posso


 e ci siamo mischiati la pelle le anime le ossa
 ed appena finito ognuno ha ripreso le sue
 tu che dentro sei perfetta
 mentre io mi vado stretto
 tu che sei così brava a rimanere mania
 forse ti ricordi
 sono roba tua

     non va più via l'odore del sesso che hai addosso
     si attacca qui all'amore che posso che io posso

     non va più via l'odore del sesso che hai
     addosso si attacca qui all'amore che posso che io posso


     non va più via davvero non va più via nemmeno se...

     non va più via

~~~~~~~~~~~~~~~~~~~~~~~~~~
KAY E' STATA QUI - LIGABUE
~~~~~~~~~~~~~~~~~~~~~~~~~~
tabbed by nuke.
[Intro di Alessandro Marini]

   [Intro/Rit]
   Mim7[suonato al 7mo capo]  RE4[al 5nto capo]
e:--------10-----------10----|-------10---------10-----|
B:--8-7-8--------8-----------|-8-7-8-------8-----------|
G:--7------------------------|-7-----------------------|
D:---------------------------|-------------------------|
A:---------------------------|-------------------------|
E:---------------------------|-------------------------|
    1 . 2  . 3 . 4 . 5 . 6 .   1 . 2 . 3 . 4 . 5 . 6 .

  DO[al 3rzo capo]          SOL         SOL/FA#
e:-------10---------10-----|-------------------------|
B:-8-7-8-------8---------8-|-----8-----8-----8-------|
G:-------------------------|-------------------------|
D:-------------------------|-7-9---------7-9---------|
A:-------------------------|-------------------------|
E:-------------------------|-------------------------|
   1 . 2 . 3 . 4 . 5 . 6 .   1 . 2 . 3 . 4 . 5 . 6 .


MI-7
Giochi ancora forte
RE
giochi solo sola
DO                                SOL FA#-/SOL
o giochi ancora un po' con me?
MI-7
E' come a moscacieca
RE
vinci e non ti trovo
DO                                SOL FA#-/SOL
forse cerco quella che non c'e'...

MI-7 FA#-/SOL DO
MI-7 FA#-/SOL DO

MI-7
Ridi di chi bacia
   RE
il culo alla sua morte
DO                       SOL FA#-/SOL
non ho visto niente io  e tu
MI-7
dici di aver visto
RE
sempre troppo forte
DO                        SOL  FA#-/SOL
sempre accesa la tua spia

[bridge_on]
    LAm    SI/SOL DO    SI/SOL DO       RE
e lavori ancora d'ago a modo   tuo...
[bridge_off]

[chorus_on]
MI-7               RE    DO
Niente e' piu' uguale
                     SOL
kay e' stata qui
        FA#-/SOL
kay e' stata qui
MI-7               RE
niente e' piu' uguale
  DO  SOL FA#-/SOL
sara' mai...
[chorus_off]

MI-7 RE DO SOL FA#-/SOL

MI-7
Giochi in mezzo ai giochi
RE
di tutti gli idioti
DO                        SOL FA#-/SOL
che han risposte facili
MI-7
giochi e vuoi che rida
   RE
il test e' negativo
DO                       SOL FA#-/SOL
giochi a farmi dire si
[bridge_on]
    LAm  SI/SOL DO      SI/SOL DO       RE
e lavori sempre d'ago a modo   tuo...
[bridge_off]

[chorus_on]
MI-7               RE    DO
Niente e' piu' uguale
                     SOL
kay e' stata qui
        FA#-/SOL
kay e' stata qui
MI-7               RE
niente e' piu' uguale
  DO  SOL FA#-/SOL
sara' mai...
[chorus_off]

MI-7 FA#-/SOL DO [X4]
[Assolo di tromba, su 2 giri di strofa + bridge]

[chorus_on]
MI-7               RE    DO
Niente e' piu' uguale
                     SOL
kay e' stata qui
        FA#-/SOL
kay e' stata qui
MI-7               RE
niente e' piu' uguale
  DO  SOL FA#-/SOL
sara' mai...
MI-7               RE    DO
Niente e' piu' uguale
                     SOL
kay e' stata qui
        FA#-/SOL
kay e' stata qui
MI-7               RE
niente e' piu' uguale
  DO  SOL FA#-/SOL
sara' mai...
[chorus_off]

MI-7 FA#-/SOL DO [X3]
MI-7

[Strofa]
  mi-7   re    do    sol  fa#-/sol
e|--3--|--3--|--3--|--3--|--3-----|
b|--3--|--3--|--3--|--3--|--3-----|
g|--0--|--2--|--0--|--0--|--0-----|
d|--0--|--0--|--2--|--0--|--2-----|
a|--2--|--X--|--3--|--2--|--0-----|
e|--2--|--X--|--0--|--3--|--2-----|

[bridge]
   la-  si/sol  do   re
e|--0--|--0--|--0--|--2--|
b|--1--|--3--|--3--|--3--|
g|--2--|--0--|--0--|--2--|
d|--2--|--0--|--2--|--0--|
a|--0--|--2--|--3--|--0--|
e|--X--|--0--|--0--|--X--|

Ciao nuke.
http://members.xoom.it/nuke
mailto:unklenuke@geocities.com

~~~~~~~~~~~~~~~~~~~~~~~~~~~~~~~~~~~~~~~~~~~~~~~~~~~~~~~~~~~~~~~~~
 QUALCUNO HA VISTO, PER CASO, IL MIO CANE BLU ELETTRICO MONOFASE?
~~~~~~~~~~~~~~~~~~~~~~~~~~~~~~~~~~~~~~~~~~~~~~~~~~~~~~~~~~~~~~~~~
              "Miss Mondo" - 1999 - Luciano Ligabue


( Posted by -Little Hawk- )

                                                (2 v.)
e---||----------------------------------------------||-----
B---||----------------------------------------------||-----
D---||.--------------------------------------------.||-----
G---||.--------------------------------------------.||-----
A---||---12--14--12--11--12--11--9--9--9--7--7--7---||-----
E---||----0---0---0---0---0---0--0--0--0--0--0--0---||-----


e-----------------------------------------------------------||-
B-----------------------------------------------------------||-
D-----------------------------------------------------------||-
G-----------------------------------------------------------||-
A---5--7--5--4----5-4--2--0--2--2--2-2----2-0-2-0-2-0-2-0-2-||-
E---0--0--0--0--0-0-0--0--0--0--0--0-0--0-0-0-0-0-0-0-0-0-0-||-

==================================================
SULLA MIA STRADA
================
TAB di Alessanro Marini

[Intro/Riff1]MI         MI7+/SOL#              LA
e:---------------------|----------------------|---------------------|
B:10-10-9-9-10-10-12---|10-10-9-9-10-10-12-12-|10-10-9-9-10-10-12---|
G:---------------------|----------------------|---------------------|
D:---------------------|----------------------|---------------------|
A:---------------------|----------------------|---------------------|
E:---------------------|----------------------|---------------------|
   1  . 2 .  3  .  4 .   1  . 2 .  3  .  4  .   1  . 2 .  3  .  4 .

  LAm                  [Intro/Riff2/Rit] MI7+/SOL#
e:--------------------|-----------------|-------------------|
B:10-10-9-9-10-10-----|-10----9-9-------|-------9----9----9-|
G:----------------9---|---------------9-\-9-------11---11---|
D:--------------------|-----------------|-------------------|
A:--------------------|-----------------|-------------------|
E:--------------------|-----------------|-------------------|
   1  . 2 . 3  .  4 .   1 . 2 . 3 . 4 .   1 . 2 . 3  .  4 .

  LA                LAm                 MI                MI7+/SOL#
e:-----------------|-------------------|-----------------|-----------------|
B:10-----9-9-------|-------9----9----9-|12-------------12|12-------------9-|
G:---------------9-\-9-------11---11---|-------9-9-------|-------9-9-------|
D:-----------------|-------------------|-----------------|-----------------|
A:-----------------|-------------------|-----------------|-----------------|
E:-----------------|-------------------|-----------------|-----------------|
   1 . 2 . 3 . 4 .   1 . 2 . 3  .  4 .   1 . 2 . 3 . 4 .   1 . 2 . 3 . 4 .

  LA                  LAm
e:-------------------|-----------------||
B:10-10----9-9-------|-------9-9-------||
G:-----------------9-|-9---------------||
D:-------------------|-----------------||
A:-------------------|-----------------||
E:-------------------|-----------------||
   1  .  2 . 3 . 4 .   1 . 2 . 3 . 4 .


 MI      MImaj7/SOL#   LA
  C'e' chi mi vuole come vuole
             LAm              MI
  un po' piu' santo piu' criminale
             MImaj7/SOL#            LA
  un po' piu' nuovo, un po' piu' uguale
    LAm
  mi vuole come vuole

[Riff]

  C'e' chi mi vuole per cliente
  chi non mi vuole mai per niente
  e' c'e' chi vuole le mie scuse
  che cio' che sono l'ha offeso
   SIm                   LA
    Di' un po' te come ti vogliono?
   SIm                   LA
    di' un po' tu come ti vuoi?
               MI
    Tu come ti vuoi?

     MI    maj7/SOL#        LA    LAm
[Rit]  Sono vivo abbastanza, sono vivo abbastanza
     MI      maj7/SOL#      LA
       per di qua, comunque vada
              LAm
       sempre sulla mia strada

[Riff]

  C'e' chi mi vuole piu' me stesso
  e piu' profondo, piu' maledetto
  e bravo padre e bravo a letto
  c'e' chi mi vuole perfetto
    Di' un po' te come ti vogliono?
    di' un po' tu come ti vuoi?
    Tu come ti vuoi?

[Rit]  Sono vivo abbastanza, sono vivo abbastanza
       per di qua, comunque vada
       sempre sulla mia strada

  [Solo]
e:-------------------------------------------------|
B:-9----------9/10--10\9--9-----poi--------9/10/12-|
G:------------------------------dopo---------------|
D:-------------------------------------------------|
A:-------------------------------------------------|
E:-------------------------------------------------|


    Di' un po' te come ti vogliono?
    di' un po' tu come ti vuoi?
    Tu come ti vuoi?

[Rit]  Sono vivo abbastanza, sono vivo abbastanza
       per di qua, comunque vada
       sempre sulla mia strada

[Outro][Chit1 suona Riff1]
       [Chit2 suona Riff2]

===============================================
FORSE MI TROVO
==============

[Intro]  |LAm  |SOL  |LAm  |SOL  |FAmaj7 |DO   |  SOL4 SOL7|

 REm7              SOL
  E cerco nei tuoi occhi
 MIm7                 FA
  perche' alla fine e' gioco di specchi
 REm7                 SOL
  perche' alla fine e' un gioco
 MIm7                 FA
  che non mi va di perdere

  E cerco sulla tua pelle
  che sai cosi' bene che sei cosi' bella
  e allora mi cerco piu' a valle
  sotto un respiro tiepido

     DO         MIm7
[Rit]  Forse mi trovo
     REm7                FA              DO
       forse non sono nemmeno lontano da me
                MIm7
       forse mi trovo
     REm7         FA
       e mi trovo bene
     DO         MIm7
       forse ti trovo
     REm7                   FA
       per non cercarmi mai piu', mai piu'

[Solo 1]   |LAm  |SOL  |LAm  |SOL  |FAmaj7 |DO   |  SOL4 SOL7|

  Pensami alle dieci
  pensami forte con la tua mano
  anche se sto lontano
  cercati un poco pure tu

  E cerco mentre dormi
  tra l'aria che muovi e quella che fermi
  un metro fuori dai sogni
  che quelli almeno sono tuoi

[Rit]  Forse mi trovo
       forse non sono nemmeno lontano da me
       forse mi trovo
       e mi trovo bene
       forse ti trovo
       per non cercarmi mai piu', mai piu'

[Solo 2]   |LAm  |SOL  |LAm  |SOL  |FAmaj7 |DO   |  SOL4 SOL7|

[Rit]  Forse mi trovo
       forse non sono nemmeno lontano da me
       forse mi trovo
       e mi trovo bene
       forse ti trovo
       per non cercarmi mai piu', mai piu'


===============================
MISS MONDO 99
=============
TAB di Alessandro Marini

  [Intro]
     DO       SOL      LAm               DO      SOL       LAm
e:--|-----------------|-----------------|-----------------|-----------------
|
B:--|-----8-------8---|-----5-----------|-----8-------8---|-----5-----------
|
G:--|---9---9---7---7-|---5--/7-----5---|---9---9---7---7-|---5--/7-----5---
|
D:-5/10-------9-------|-7---------7-----|10-------9-------|-7---------7-----
|
A:--|-----------------|-----------------|-----------------|-----------------
|
E:--|-----------------|-----------------|-----------------|-----------------
|
      1 . 2 . 3 . 4 .   1 . 2 . 3 . 4 .   1 . 2 . 3 . 4 .   1 . 2 . 3 . 4 .

  DO       SOL
e:-----------------|
B:-----8-------8---|
G:---9---9---7---7-|
D:10-------9-------|
A:-----------------|
E:-----------------|

   1 . 2 . 3 . 4 .


  LAm         SOL
  Guarda me io sono qua
      FA           DO      SOL/SI
  con tutto quello che vuol dire
 LAm         SOL
  sono pronto per meta'
 FA           DO      SOL/SI
  per meta' saro' a sentire
    LAm             SOL
    e poi non cambio mai
      FA            DO  SOL/SI
    mi cambio tuti i giorni
   LAm            SOL
    sta girando il secolo
   FA            DO   SOL/SI   RE
    facci almeno divertire un po'
   RE
    divertire un po'

     DO                   FA
[Rit]  Saranno lacrime d'amore
      LAm            SOL
       per miss mondo 99
      MIm(?)                  FA           DO    RE
       mandaci un bacio siamo tutti quanti qua

[Fill]  |DO  SOL |LAm     |DO  SOL |LAm     |LAm     |

  Guarda me io sono qua
  coi conti che ci devi fare
  fatti solo un po' piu' in la'
  che non vedo il mondo bene
   non cambiare mai
    e cambia tutti i giorni
    se vedi il mondo diglielo
    che siamo qui per un motivo noi
    un motivo noi

[Rit]  Saranno lacrime d'amore
       per miss mondo 99
       mandaci un bacio siamo tutti quanti qua

       Saranno lacrime di gioia
       per miss mondo 99
       dai facci un po' vedere cosa c'e di la'

[Outro]
=================================================================
~~~~~~~~~~~~~~~~~~
LA PORTA DEI SOGNI
~~~~~~~~~~~~~~~~~~

 (posted by -Little Hakw-)

INTRO: C Sol F C Sol C Sol

                     C                     Sol
E mi attacco alle stelle che altrimenti si cade
                 F               C                 Sol C Sol
e poi alzo il volume di questo silenzio che fa stare bene
                  C                     Sol
e mi sa che sei quella che fa luce pian piano
               F                 C                  Sol C Sol
chissà come ci vedi e chissà come ridi di quello che siamo
                   Am              F
E mi attacco alla buccia di questa notte
   Em         Em7       Sol C Sol [stop]
e salto, salto ma rimango giù


                 F C Sol[stop]
    A porta dei sogni
                 F C Sol[stop]
    la porta dei sogni
                 F C Sol C Sol Do[stop]
    la porta dei sogni chiudi.la   tu


E mi attacco alle stelle tiro un po' a indovinare
mi predico un presente in cui non c'è niente se non respirare
e se proprio sei quella fatti almeno guardare
non sai quanto ci manchi non tornano i conti a doverti trovare
e mi attacco alla luce di questa notte
e salto, salto ma rimango giù

    A porta dei sogni
    la porta dei sogni
    la porta dei sogni chiudila tu


--
Ciao, Tigers
http://members.xoom.it/tigers



--
Ciao, Tigers



     
Добавлено: 30.10.2013
Другие материалы по этой песне:
  • Аккорды и текст

Страница создана 30.10.2013
http://primanota.ru/luciano-ligabue/miss-mondo-album-chords.htm
Привет, Гость.
Предлагаем пройти революционный курс по гитаре.
Подарок от PrimaNota.Ru, забирай!