PrimaNota.ru - самый крупный в мире бесплатный архив песенных текстов, аккордов, табулатур и нот


Luciano Ligabue - Metti In Circolo Il Tuo Amore 2003 - таба, видео

Регистрация Запомнить меня
Войти через:  Facebook Google Twitter Vk Yandex Mail.ru

Luciano Ligabue - Metti In Circolo Il Tuo Amore 2003 - таба, видео

Печатать
Просмотров: 71
		   METTI IN CIRCOLO IL TUO AMORE (Ligabue)

così come arrangiata per l'album live Giro d'Italia (2003)

Tab by Zac

Intro: Gtr 1 capo IV tasto

|------------|-----------|-----------|-------------|
|-----3------|-----3-----|-3-3--3-3--|-3---3-------|
|-0-------0--|-0-------0-|-0----0----|-2-2-----0---|
|---2---2----|---2---2---|-----------|-0-----0-----|
|-3----------|-2---------|-----------|-------------|
|------------|-----------|-3----3----|-------------|

|------------|-----------|-----------|-------------|
|-----3------|-----3-----|-3-3--3-3--|-3---3-------|
|-0-------0--|-0-------0-|-0----0----|-0-------0---|
|---2---2----|---2---2---|-----------|---2---2-----|
|-3----------|-2---------|-----------|-------------|
|------------|-----------|-3----3----|-0-----------|

|------------|-----------|-----------|-------------|
|-----3------|-----3-----|-3-3--3-3--|-3---3-------|
|-0-------0--|-0-------0-|-0----0----|-2-2-----2---|
|---2---2----|---2---2---|-----------|-0-----0-----|
|-3----------|-2---------|-----------|-------------|
|------------|-----------|-3----3----|-------------|

|------------|-----------|-----------|
|-3---3------|-3---3-----|-3---3-----|
|-2-2-----2--|-2-2-----2-|-2-2-----2-|
|-0-----0----|-0-----0---|-0-----0---|
|------------|-----------|-----------|
|------------|-----------|-----------|

       sol                           re/fa#
Hai cercato di capire ma non hai capito ancora
|------------|-----------|-----------|-------------|
|-----3------|-----3-----|-----3-----|-----3-------|
|-0-------0--|-0-------0-|-2-------2-|-2-------2---|
|---0---0----|---0---0---|---0---0---|---0---0-----|
|------------|-----------|-----------|-------------|
|-3----------|-3---------|-2---------|-2-----------|

   mi-7                 re
se di capire si finisce mai
|-------------|-------------|-----------|-----------|
|-3---3-------|-3---3-------|-3---3-----|-3---3-----|
|-0-------0---|-0-------0---|-2-2-----2-|-2-2-----2-|
|---2---2-----|---2---2-----|-0-----0---|-0-----0---|
|-------------|-------------|-----------|-----------|
|-0-----------|-0-----------|-----------|-----------|

       do                    sol
hai provato a far capire con tutta la tua voce
|------------|-----------|------------|-----------|
|-----3------|-----3-----|-----3------|-----3-----|
|-0-------0--|-0-------0-|-0-------0--|-0-------0-|
|---2---2----|---2---2---|---0---0----|---0---0---|
|-3----------|-3---------|------------|-----------|
|------------|-----------|-3----------|-3---------|

      re/fa#                      mi-7
anche solo un pezzo di quello che sei
|-----------|-------------|-------------|-------------|
|-----3-----|-----3-------|-3---3-------|-3---3-------|
|-2-------2-|-2-------2---|-0-------0---|-0-------0---|
|---0---0---|---0---0-----|---2---2-----|---2---2-----|
|-----------|-------------|-------------|-------------|
|-2---------|-2-----------|-0-----------|-0-----------|

con la rabbia ci si nasce o ci si diventa
e tu che sei un esperto non lo sai
perche' quello che ti spacca e ti fa fuori dentro
forse parte proprio da chi sei

         do               sol
metti in circolo il tuo amore
  re/fa#                 mi-7
come quando dici perche' no
         do               sol
metti in circolo il tuo amore
  re/fa#                 mi-7
come quando ammetti non lo so
re
come quando dici perche' no


Gtr 1 ripete intro

Gtr 2 no capo
|---------|-----------|---------|---------|
|-----7---|-----7-----|-----7---|-----5-4-|
|-2/4---4-|-2/4---4---|-2/4---4-|-4/6-----|
|---------|-----------|---------|---------|
|---------|-----------|---------|---------|
|---------|-----------|---------|---------|

|---------|-----------|---------|---------|
|-----7---|-----7-----|-----7---|---------|
|-2/4---4-|-2/4---4---|-2/4---4-|-----4---|
|---------|-----------|---------|-4/6---6-|
|---------|-----------|---------|---------|
|---------|-----------|---------|---------|

|---------|-----------|---------|---------|
|-----7---|-----7-----|-----7---|---------|
|-2/4---4-|-2/4---4---|-2/4---4-|-4/6-----|
|---------|-----------|---------|---------|
|---------|-----------|---------|---------|
|---------|-----------|---------|---------|

|---------|-----------|---------|
|----5-4--|-----------|---------|
|---------|-6---------|---------|
|---------|-----------|---------|
|---------|-----------|---------|
|---------|-----------|---------|


quante vite non capisci e quindi non sopporti
perche' ti sembra non capiscan te
quanti generi di pesci e che correnti forti
perche' 'sto mare sia come vuoi te

metti in circolo il tuo amore
come fai con una novita'
metti in circolo il tuo amore
come quando dici si vedra'
come fai con una novita'

Solo: Gtr 2 no capo
 re
|-----|---------------------|--------------------|-7--------7-9^(10)-|
|-----|---------------------|-----7------------7-|---9--7/9----------|
|-----|-6/8-4-6---4^6-----4-|-6/8---6-4-6--6/8---|-------------------|
|-4-6-|---------6-------6---|--------------------|-------------------|
|-----|---------------------|--------------------|-------------------|
|-----|---------------------|--------------------|-------------------|

|-7-9-7-9\-------|-----------------------|---------------------|---------------------|
|----------------|-----------------------|---------------------|---------------------|
|----------------|-----4-----------------|-6/8-4-6---4^6-------|---------------------|
|------------1-4-|-4/6---6\4-2-4/6---4-6-|---------6-----------|-------------4-6/9/4-|
|----------------|-----------------------|---------------------|-----2-4-4/6---------|
|----------------|-----------------------|-----------------2-2-|-2^4-----------------|

e ti sei opposto all'onda ed e' lì che hai capito
che piu' ti opponi e piu' ti tira giu'
e ti senti ad una festa per cui non hai l'invito
per cui gli inviti adesso falli tu

metti in circolo il tuo amore
come quando dici perche' no
metti in circolo il tuo amore
come quando ammetti non lo so


     
Добавлено: 12.09.2013
Другие материалы по этой песне:
  • Аккорды и текст

Страница создана 12.09.2013
http://primanota.ru/luciano-ligabue/metti-in-circolo-il-tuo-amore-2003-chords.htm
Привет, Гость.
Предлагаем пройти революционный курс по гитаре.
Подарок от PrimaNota.Ru, забирай!