PrimaNota.ru - самый крупный в мире бесплатный архив песенных текстов, аккордов, табулатур и нот


Luciano Ligabue - Marlon Brando ? Sempre Lui - таба, видео

Регистрация Запомнить меня
Войти через:  Facebook Google Twitter Vk Yandex Mail.ru

Luciano Ligabue - Marlon Brando ? Sempre Lui - таба, видео

Печатать
Просмотров: 84
~~~~~~~~~~~~~~~~~~~~~~~~~~~
MARLON BRANDO E' SEMPRE LUI
~~~~~~~~~~~~~~~~~~~~~~~~~~~

   D4 x00233
Am4/7 002033
consiglio anche di usare:
    G 320033
    C 032013

Intro: G C D4 D

TAB opera di Red

e|---3-3---3-3---3-|---3-3---3-3---3-|
B|-3-----3-----3---|-1-----1-----1---|
G|-----------------|-----------------|
D|-----------------|-----------------|
A|-----------------|-----------------|
E|-----------------|-----------------|

e|---3-3---2-2---3-|-3---2-2---3---2-|
B|-3-----3-----3---|---3-----3---3---|
G|-----------------|-----------------|
D|-----------------|-----------------|
A|-----------------|-----------------|
E|-----------------|-----------------|

TAB di Alessandro Marini

[Intro]
TAB prima chitarra di: Binda Pietro

Prima chitarra:
e:-----7---5-5---8---7-7---5--5-7--3--5-----|
B:------------------------------------------|
G:------------------------------------------| X2
D:------------------------------------------|
A:------------------------------------------|
E:------------------------------------------|


Seconda chitarra:
  SOL                DO                 RE                      .  .
e:-3-----3-3---3-3-|-3-----3-3---3-3-|-3--3-2--2-3--3-|-2--2---3.-2.|
B:-3-----3-3---3-3-|-1-----1-1---1-1-|-3--3-3--3-3--3-|-3--3---3--3-|
G:-0---------------|-0---------------|----------------|-------------| X 2
D:-----------------|-----------------|----------------|-------------|
A:-----------------|-----------------|----------------|-------------|
E:-----------------|-----------------|----------------|-------------|
   1 . 2 . 3 . 4 .   1 . 2 . 3 . 4 .   1 . 2 . 3 . 4 .  1 . 2  3  4


    in effetti occorrerebbe giocherellare un po'
           fra D e D4, fate qualche tentativo
                            vvvvvvvvvvvv
G              C            D
Lui aveva un vecchio maggiolone cabriolet
G              C          Am4/7
sfatto ma piaceva tanto a lei
G                 C                D
Arrivo' e col clacson disse: "Sto aspettando te"
    G           C             D
Lei scese profumata piu' che mai

Fecero due conti in tasca e videro che
non ci si ballava neanche un po'
lei gli disse: "Questa sera voglio far l'amore,
prima pero' portami a sognare".

D   Em        C                 D
 Un fascio di luce va dal proiettore
Bm       C              D  D D D
per un sogno da duemila li-i-i-ire
G             C             D
porti addosso qualche segno provero' a tirarteli via
G          C            D
posso solo questo sogno scusa per la mia fantasia
Em               Bm
giu' in platea sedie di legno
C           Am              D
gole secche per la sete d'eroi

D                         G
E Marlon Brando e' sempre lui
    C        D4  D
ooh lui, ooh lui
                        G
Marlon Brando e' sempre lui
    C        D4  D
ooh lui, ooh lui

Un po' piu' avanti con negli occhi ancora tanto film
Terry Malloy infine, vince lui
Lui le dice come vedi siamo sempre qui
e non e' obbligatorio essere eroi

Un fascio di luce va dal maggiolone
carrellata per il lieto fi-i-i-i-ine

porti addosso qualche segno provero' a tirarteli via
posso solo questo sogno scusa per la mia fantasia
giu' in platea sedie di legno
gole secche per la sete d'eroi

D                         G
E Marlon Brando e' sempre lui
    C        D4  D
ooh lui, ooh lui
                        G
Marlon Brando e' sempre lui
    C        D4  D
ooh lui, ooh lui

Solo: G C D4 D (x3)

G         C            D4     D
Marlon Brando e' sempre       lui
G         C            D4     D
Marlon Brando e' sempre       lui

Finale: G C D4 D

(finale in G)

[Outro fornita da Alessandro Marini]

[Strum/Outro](tastiera arr. per chit.)
  SOL                DO                RE    /SI  /SOL   RE    /SI  /SOL
 [ /   / /   / /   | /   / /   / /   | / / / /     /   | / / / /     /  ]
   1 . 2 . 3 . 4 .   1 . 2 . 3 . 4 .   1 . 2 . 3 . 4 .   1 . 2 . 3 . 4 .
+-+-+-+-+-+-+-+-+-+-+-+-+-+-+-+-+-+-+-+-+-+-+-+-+-+-+-+-+-+-+-+-+-


Добавлено: 15.08.2013
Другие материалы по этой песне:
  • Аккорды и текст

Страница создана 15.08.2013
http://primanota.ru/luciano-ligabue/marlon-brando-sempre-lui-chords.htm
Привет, Гость.
Предлагаем пройти революционный курс по гитаре.
Подарок от PrimaNota.Ru, забирай!