PrimaNota.ru - самый крупный в мире бесплатный архив песенных текстов, аккордов, табулатур и нот


Luciano Ligabue - L'odore Del Sesso.2 - таба, видео

Регистрация Запомнить меня
Войти через:  Facebook Google Twitter Vk Yandex Mail.ru

Luciano Ligabue - L'odore Del Sesso.2 - таба, видео

Печатать
Просмотров: 67
		   --------

---------------------------------------------
SONG Title: L'odore del sesso
ARTIST/GROUP: Ligabue
TRANSCRIBED By: Francesco Varriale
---------------------------------------------


main riff
e|------------------------------------------------------------|
B|-----12--12----------12--12---------12--12---------12--12---|
G|---12--14--14-12---12--14--14-12--12--14--14-12--12--14--14-|
D|-14--------------14-------------12-------------12-----------|
A|------------------------------------------------------------|
E|------------------------------------------------------------|


Em C G
B fa presto a cantare che il tempo sistema le cose

e|------------------------------------------------------------|
B|------------12----------------------------------------------|
G|---14-12-14-------------------------------------------------|
D|------------------------------------------------------------|
A|------------------------------------------------------------|
E|------------------------------------------------------------|

Em C G
si fa un po' meno presto a convincersi che sia così

e|------------------------------------------------------------|
B|------------12------12--------------------------------------|
G|---14-12-14-----14------------------------------------------|
D|------------------------------------------------------------|
A|------------------------------------------------------------|
E|------------------------------------------------------------|

Em C
io non so se è proprio amore:
G A
faccio ancora confusione
C D Em A
so che sei la più brava a non andartene via
C
forse ti ricordi
D G
ero roba tua

G Em C A
non va più via l'odore del sesso che hai addosso

e|------------------------------------------------------------|
B|------------------------12----------------------------------|
G|14-12----12-14-14-12-14----14-------------------------------|
D|------14----------------------------------------------------|
A|------------------------------------------------------------|
E|------------------------------------------------------------|


G Em C A
si attacca qui all'amore che posso che io posso
(pause)
e ci siamo mischiati la pelle le anime le ossa


main riff
e|------------------------------------------------------------|
B|-----12--12----------12--12---------12--12---------12--12---|
G|---12--14--14-12---12--14--14-12--12--14--14-12--12--14--14-|
D|-14--------------14-------------12-------------12-----------|
A|------------------------------------------------------------|
E|------------------------------------------------------------|


ed appena finito ognuno ha ripreso le sue
tu che dentro sei perfetta
mentre io mi vado stretto
tu che sei la più brava a rimanere mania
forse ti ricordi
sono roba tua

solo
e|------------------------------------------------------------|
B|-----------------------------10h12-12-12-12-12-12-12-10-12--|
G|12h14-12-------12h14-12---12--------------------------------|
D|---------14-12---------14-----------------------------------|
A|------------------------------------------------------------|
E|------------------------------------------------------------|

e|------------------------------------------------------------|
B|-----------------------------10h12-12-12-12-12-12-12-10-12--|
G|12h14-12-------12h14-12---12--------------------------------|
D|---------14-12---------14-----------------------------------|
A|------------------------------------------------------------|

E|------------------------------------------------------------|
e|------------------------------------------------12-12-12/15-|
B|12-10-12-12-10h12-10-12-12-12-12/15-15-15-15-15-------------|
G|------------------------------------------------------------|
D|------------------------------------------------------------|
A|------------------------------------------------------------|
E|------------------------------------------------------------|


G Em C A
non va più via l'odore del sesso che hai addosso

e|------------------------------------------------------------|
B|------------------------12----------------------------------|
G|14-12----12-14-14-12-14----14-------------------------------|
D|------14----------------------------------------------------|
A|------------------------------------------------------------|
E|------------------------------------------------------------|

G Em C A
si attacca qui all'amore che posso che io posso



G Em C A
non va più via l'odore del sesso che hai addosso
G Em C A
si attacca qui all'amore che posso che io posso



non va più via davvero non va più via nemmeno se...
non va più via

outro
e|------------------------------------------------------------|
B|------------------------------------------------------------|
G|12-12-12-12-12-12-12-12--12-12-12-12-12-12-12-12------------|
D|12-12-12-12-12-12-12-12--14-14-14-14-14-14-14-14------------|
A|------------------------------------------------------------|
E|------------------------------------------------------------|



e|------------------------------------------------------------|
B|13-13-13-13-13-13-13-13--14-14-14-14-14-14-14-14------------|
G|12-12-12-12-12-12-12-12--14-14-14-14-14-14-14-14------------|
D|14-14-14-14-14-14-14-14--14-14-14-14-14-14-14-14------------|
A|------------------------------------------------------------|
E|------------------------------------------------------------|



e|------------------------------------------------------------|
B|------------------------------------------------------------|
G|12-12-12-12-12-12-12-12--12-12-12-12-12-12-12-12------------|
D|12-12-12-12-12-12-12-12--14-14-14-14-14-14-14-14------------|
A|------------------------------------------------------------|
E|------------------------------------------------------------|



e|------------------------------------------------------------|
B|13-13-13-13-13-13-13-13--14-14-14-14-14-14-14-14----12------|
G|12-12-12-12-12-12-12-12--14-14-14-14-14-14-14-14----12------|
D|14-14-14-14-14-14-14-14--14-14-14-14-14-14-14-14----12------|
A|------------------------------------------------------------|
E|------------------------------------------------------------|
     
Добавлено: 28.09.2013
Другие материалы по этой песне:
  • Аккорды и текст

Страница создана 28.09.2013
http://primanota.ru/luciano-ligabue/lodore-del-sesso2-chords.htm
Привет, Гость.
Предлагаем пройти революционный курс по гитаре.
Подарок от PrimaNota.Ru, забирай!