PrimaNota.ru - самый крупный в мире бесплатный архив песенных текстов, аккордов, табулатур и нот


Luciano Ligabue - Ho Messo Via 2003 - таба, видео

Регистрация Запомнить меня
Войти через:  Facebook Google Twitter Vk Yandex Mail.ru

Luciano Ligabue - Ho Messo Via 2003 - таба, видео

Печатать
Просмотров: 87
		   HO MESSO VIA (Ligabue)

così come arrangiata per l'album live Giro d'Italia (2003)

Tab by Zac


Gtr 1 acustica
|-----------|-----------|-----------|-------------|
|---------3-|---------3-|---------3-|---------3---|
|-----0-----|-----0-----|-----0-----|-----0-----0-|
|---0---0---|---2---2---|---2---2---|---2---2-----| x2
|-----------|-3---------|-----------|-3-----------|
|-3---------|-----------|-0---------|-------------|

         sol
Ho messo via un po' di rumore
    do
dicono cosi' si fa
riff1
|---3---------|
|-3---1-3-----|
|-------------|
|-------------|
|-------------|
|-------------|

        mi-
nel comodino c'è una mina
           do          re
e tonsille da seimila watt.
         sol
Ho messo via i rimpiattini
    do			riff1
dicono non ho l'eta'
      mi-
se si voltano un momomento
        do              re      sol   do  mi-  do re
io ci rigioco perche' a me...  va.

|-5-7-5-7--7-10-7-|-5-7-5-7--7-10-7-|-5-7-5-7--7-10-7-|-5-7-5-7--7-10-7-|   si
|-----------------|-----------------|-----------------|-----------------| ripete
|-----------------|-----------------|-----------------|-----------------| ponte
|-----------------|-----------------|-----------------|-----------------|e nella
|-----------------|-----------------|-----------------|-----------------| strofa
|-----------------|-----------------|-----------------|-----------------|

Ho messo via un po' di illusioni
che prima o poi basta cosi'
ne ho messe via due o tre cartoni
comunque so che sono li'.
Ho messo via un po' di consigli
dicono e' piu' facile
li ho messi via perche' a sbagliare
sono bravissimo da me.
re       si-			        do
E sto facendo un po' di posto e che mi aspetto chi lo sa
|-7-7-7-7\--------|-8--8--8--8\-----|
|-7-7-7-7\--------|-8--8--8--8\-----|
|-7-7-7-7\--------|-9--9--9--9\-----|
|-7-7-7-7\--------|-10-10-10-10\----|
|-----------------|-----------------|
|-----------------|-----------------|

          mi-                   do           re
che posto vuoto ce n'è stato ce n'e' ce ne sara'.
|-7-7-7-7\--------|-----------------|
|-8-8-8-8\--------|------------3----|
|-9-9-9-9\--------|-----0----2------|
|-9-9-9-9\--------|---2----0--------|
|-----------------|-3---------------|
|-----------------|-----------------|

Ho messo via un bel po' di cose
ma non mi spiego mai il perche'
io non riesca a metter via te

Gtr 2 distorta
|-----------------|-----------------|-----------------|-----------------|
|-----------------|-----------------|-----------------|-----------------|
|-7^9^7^9^7^9^7^9-|-7^9^7^9^7^9^7^9-|--7-9~~~~~~~~~~~~|----7~~~~~~~~~~~~|
|-----------------|-----------------|--7--------------|-(5)-------------|
|-----------------|-----------------|-----------------|-----------------|
|-----------------|-----------------|-----------------|-----------------|

|-----------------|-----------------|-7-------8-------|-7-8-10\---3-----|
|-----------------|------------8^10-|----8^10---------|-8-------1-------|
|~~~~~~~~~~~~~~~~~|~~~~~~~~~~~~~----|-----------------|-----------------|
|-----------------|-----------------|-----------------|-----------------|
|-----------------|-----------------|-----------------|-----------------|
|-----------------|-----------------|-----------------|-----------------|

Ho messo via un po' di legnate
i segni quelli non si puo'
che non e' il male ne' la botta
ma purtroppo il livido.
Ho messo via un bel po' di foto
che prenderanno polvere
sia su rimorsi che rimpianti
che rancori e sui perche'
E sto facendo un po' di posto
e che mi aspetto chi lo sa
che posto vuoto ce n'è stato ce n'e' ce ne sara'.
Ho messo via un bel po' di cose
ma non mi spiego mai il perche'
io non riesca a metter via te
Gtr 1
|--------------------|---------------|----------------------|-----------------------|
|--------------------|---------------|----------------------|-----/8-8-7-7-7^8-8/10-|
|-2^4-2-2/4--4-5/7\5-|-7/12-11-12-11\|-2^4-2-2/4--4^5-5/7\5-|-5/7-------------------|
|--------------------|---------------|----------------------|-----------------------|
|--------------------|---------------|----------------------|-----------------------|
|--------------------|---------------|----------------------|-----------------------|

|--------------------|--------------------|----------|-----------------------|
|--------------------|-----8---8---8---10-|-8----7---|-----------------------|
|-2^4-2-2/4--4-5/7\5-|/7-7---7---7---7----|----7-----|-5-4-------------7-----|
|--------------------|--------------------|----------|-----7-5-7-5-7/9-------|
|--------------------|--------------------|----------|-----------------------|
|--------------------|--------------------|----------|-----------------------|

sib
  In queste scarpe
fa                    re
e su questa terra che dondola
dondola dondola dondola
riff2
|---------------|
|-----3------3--|
|-0-2----0-2----|
|---------------| x2
|---------------|
|---------------|

sib
  con il conforto di
fa                   re riff2
  un cielo che resta li'
         si-
E sto facendo un po' di posto
          do
e che mi aspetto chi lo sa
          mi-                   do            re
che posto vuoto ce n'e' stato ce n'e' ce ne sara'.
re        sol
Ho messo via un bel po' di cose
          do
ma non mi spiego mai il perche'
       mi-      re
io non riesca a metter via
do7+     re
riesca a metter via,
mi-      re          sol  do
riesca a metter via te

Gtr 2
|-----------------|---------------------|----------------------|
|-8-10~~~~~~~~~~~~|-8^10^8^10^8^10^8^10-|-10-12-10-12----------|
|-7---------------|---------------------|-xx-------------11-12-|
|-----------------|---------------------|-xx----------12-------|
|-----------------|---------------------|----------------------|
|-----------------|---------------------|----------------------|

|-------------------------|------7\--------|------------------|
|---10-12-10------------3-|-5/8--8\------3-|-5/10~-8-10-12^10-|
|--12-----------11--2/4---|----------2/4---|------------------|
|-12---------12-----------|----------------|------------------|
|-------------------------|----------------|------------------|
|-------------------------|----------------|------------------|

|----------|----------------------|
|-8~~~~~---|----8-----------------|
|----------|--9---9///16----------|
|----------|----------------------|
|----------|----------------------|
|----------|----------------------|

Gtr 1
|---|------------|---------------|------15/17-|-15-----------------------|
|---|-13/15------|-15/17--15--12/|15----------|----15/17-15--13-12-13-12-|
|-12|---------12-|---------------|------------|--------------------------|
|---|------------|---------------|------------|--------------------------|
|---|------------|---------------|------------|--------------------------|
|---|------------|---------------|------------|--------------------------|

|----------------------------|--------------------------|
|-13/15-------------------10-|-10/12--13-12^13^12-12^13-|
|--------11^12^11-9-11-12----|--------------------------|
|----------------------------|--------------------------|
|----------------------------|--------------------------|
|----------------------------|--------------------------|

|------------|------------------------|----|
|-12------10-|-12-13/15-12--8-8/10--8-|-8--|
|------12----|------------------------|----|
|------------|------------------------|----|
|------------|------------------------|----|
|------------|------------------------|----|

     
Добавлено: 26.08.2013
Другие материалы по этой песне:
  • Аккорды и текст

Страница создана 26.08.2013
http://primanota.ru/luciano-ligabue/ho-messo-via-2003-chords.htm
Привет, Гость.
Предлагаем пройти революционный курс по гитаре.
Подарок от PrimaNota.Ru, забирай!