PrimaNota.ru - самый крупный в мире бесплатный архив песенных текстов, аккордов, табулатур и нот


Luciano Ligabue - Eri Bellissima 2003 - таба, видео

Регистрация Запомнить меня
Войти через:  Facebook Google Twitter Vk Yandex Mail.ru

Luciano Ligabue - Eri Bellissima 2003 - таба, видео

Печатать
Просмотров: 98
		   ERI BELLISSIMA (Ligabue)

così come arrangiata per l'album live Giro d'Italia (2003)

Tab by Zac

Gtr 1 (Mel)
|---------------------------|---------------10----|
|-------1-0-----------------|-------8--8--7----10-|
|-----------2-0-----0-----0-|-----7-----7---------|
|---------------0^2---0^2---|-5/9-----------------| x2
|-0-0-----------------------|---------------------|
|---------------------------|---------------------|


la-    mi-        sol	    re
Eri bellissima lasciatelo dire

riff 1
	      stoppato
|---------------------|
|------3-x-3----------|
|------4-x-4----------|
|------5-x-5----------|
|------5-x-5----------|
|-------------3//5----|

ed anche stavolta so che non mi crederai (fill 1)
Eri davanti a me , davanti agli occhi del bambino (fill 1)
e gli occhi del bambino quelli non li danno proprio indietro
mai credimi mai ti dico mai

|-0-0-0-0-0-0-0--0--0--0--0-0-|-0-0-0-0-0-0-0-0-0-0--0--|
|-3/5-5-5/8-8-8/10-10-10-10\5-|-3/5-5-5-5-5/8-8-8-8/10--|
|-----------------------------|-------------------------|
|-----------------------------|-------------------------|
|-----------------------------|-------------------------|
|-----------------------------|-------------------------|

Eri sanissima, ostrica e lampone
sulle mie dita c'eri sempre e solo te
Ti davi un attimo, poi ti nascondevi bene
Am        mi-         Sol          re            si7
io l'ho capito che sei sempre stata grande piu di me
                 do
Ma adesso dimmi come è andata?
sol
Come è stato?
si7                          mi-
Il viaggio di una vita li con te
do
Io spero solo tutto bene
sol
tutto come
si7                      mi-
progettavate voi da piccole
                 do                       Am mi- sol re (x2)
Stai bene li con te? Stai bene li con te?

Fragile e piccola con le tue paure
mi costringevi a nasconderti le mie
sapevi ridere, sapevi il tuo sapore
te la godevi ad occupare tutte le mie fantasie

Ma adesso dimmi....

Eri bellissima lasciatelo dire
|-0---3----------|---3------3^5-|
|-3/5---5----3---|-3---3----3---|
|----------4---4-|--------4-----|
|----------------|--------------| ...si ripete nella strofa
|----------------|--------------|
|----------------|--------------|

eri di tutti ma non lo sapevano
e tu lo sapevi che facevi gola e soggezione
siamo stati insieme e comunque non mi hai conosciuto mai


Ma adesso dimmi......

|---------------------------|---------------10----|
|-------1-0-----------------|-------8--8--7----10-|
|-----------2-0-----0-----0-|-----7-----7---------|
|---------------0^2---0^2---|-5/9-----------------| x2
|-0-0-----------------------|---------------------|
|---------------------------|---------------------|

|---------------------------|-------------------------|
|-------1-0-----------------|-------------------------|
|-----------2-0-----0-----0-|-2-0---0-2-0---0-2-0---0-|
|---------------0^2---0^2---|-----0-------0-------0---|
|-0-0-----------------------|-------------------------|
|---------------------------|-------------------------|

|---------------------------|---------------------|
|-------1-0-----------------|-------8-------------|
|-----------2-0-----0-----0-|-----7---------------|
|---------------0^2---0^2---|-5/9-----5/7---------|
|-0-0-----------------------|---------------------|
|---------------------------|---------------------|

     
Добавлено: 16.09.2013
Другие материалы по этой песне:
  • Аккорды и текст

Страница создана 16.09.2013
http://primanota.ru/luciano-ligabue/eri-bellissima-2003-chords.htm
Привет, Гость.
Предлагаем пройти революционный курс по гитаре.
Подарок от PrimaNota.Ru, забирай!