PrimaNota.ru - самый крупный в мире бесплатный архив песенных текстов, аккордов, табулатур и нот


Luciano Ligabue - Da Marzia - таба, видео

Регистрация Запомнить меня
Войти через:  Facebook Google Twitter Vk Yandex Mail.ru

Luciano Ligabue - Da Marzia - таба, видео

Печатать
Просмотров: 53
Ligabue - Da Marzia


e||---------------|------------------|-----------------|
B||-----------0/3-|-------------/1-0-|----------0-8-7--|
G||º----0-2-0-0/2-|-2-4-2-0---0-/0-0-|----0-2-0-0-7--7-|
D||º-0h2------0/4-|---------2---/2-0-|-0h2------0-5----|
A||---------------|------------------|-----------------|
E||---------------|------------------|-----------------|

                             s         s
e||------------------------|-------------------|---------------------------|
B||---------------1p0--(0)-|--------3--1-------|-------------------/1-/3-3-|
G||-0-2-4-2-0---0-0---0----|-0-0-0-----0-0-0---|--------0----------/0-/2-2-|
D||-----------2---2-----0--|-2-----2---2-----2-|----0-2---2-0------/2-/4-4-|
A||------------------------|-3---------3-------|-0h2----------0-2----------|
E||------------------------|-------------------|---------------------------|


e||---------------|----------------------|-------------|
B||-----------0/3-|----------/1-1p0--(0)-|-0-0-0p1-0~--|
G||-----0-2-0-0/2-|-2-4-2-0--/0-----0-0--|-0-0-0-0-0~--|
D||-0h2-------0/4-|----------/2-------0--|-0-0-0p2-0~--|
A||---------------|----------------------|-------------|
E||---------------|----------------------|-------------|


e||------------------------------------|
B||-8-8-8-8-8-7-7~-5-7-8-7-5-3~-/10-8~-|
G||-7-7-7-7-7-7-7~-7-7-7-7-7-4--/9--7~-|
D||------------------------------------|
A||-7-----------9------------2---9--7--|
E||------------------------------------|


e||-------------------------------------|
B||-8-8-8-8-8-10-7~-5-7-8-7-5-3~-/10-8~-|
G||-7-7-7-7-7-9--7~-7-7-7-7-7-4--/9--7~-|
D||-------------------------------------|
A||-7------------9------------2---9--7--|
E||-------------------------------------|


╔ 1 ╗
e||---------------|----------------------|-------------|
B||-----------0/3-|----------/1-1p0--(0)-|-0-0-0p1-0~--|
G||-----0-2-0-0/2-|-2-4-2-0--/0-----0-0--|-0-0-0-0-0~-º|
D||-0h2-------0/4-|----------/2-------0--|-0-0-0p2-0~-º|
A||---------------|----------------------|-------------|
E||---------------|----------------------|-------------|


╔ 2 ╗                                                (x3)
e||---------------|----------------------|--------------||
B||-----------0/3-|----------/1-1p0--(0)-|--0-0-0p1-0~--||
G||-----0-2-0-0/2-|-2-4-2-0--/0-----0-0--|º-0-0-0-0-0~-º||
D||-0h2-------0/4-|----------/2-------0--|º-0-0-0p2-0~-º||
A||---------------|----------------------|--------------||
E||---------------|----------------------|--------------||
Добавлено: 23.05.2016
Другие материалы по этой песне:
  • Аккорды и текст

Страница создана 23.05.2016
http://primanota.ru/luciano-ligabue/da-marzia-chords.htm
Привет, Гость.
Предлагаем пройти революционный курс по гитаре.
Подарок от PrimaNota.Ru, забирай!