PrimaNota.ru - самый крупный в мире бесплатный архив песенных текстов, аккордов, табулатур и нот


Luciano Ligabue - Chissa' Se In Cielo Passano Gli Who 2003 - таба, видео

Регистрация Запомнить меня
Войти через:  Facebook Google Twitter Vk Yandex Mail.ru

Luciano Ligabue - Chissa' Se In Cielo Passano Gli Who 2003 - таба, видео

Печатать
Просмотров: 295
Уроки эстрадного вокала в Санкт-Петербурге
		   CHISSA' SE IN CIELO PASSANO GLI WHO (ligabue)

così come arrangiata per l'album live Giro d'Italia (2003)

Tab by Zac


intro & fill1: Gtr 1
sib
|--0---1--|--0---1---|
|--3---3--|--3---3---|
|--3---3--|--3---3---|
|--3---3--|--3---3---|
|---------|----------|
|---------|----------|

F   Am   		      sib (fill1)
E buonanotte a tutti i suonatori
F   Am   		      sib (fill2)
a quelli che la devono far fuori

fill2
|--0---1--|--0---1-0-------|
|--3---3--|--3---3---3-----|
|--3---3--|--3---3-----3---|
|--3---3--|--3---3-------3-|
|---------|----------------|
|---------|----------------|

Dm Am                      Bb
a chi c'ha il mondo sempre più lontano
        Sol-      C          F
perchè ha vissuto sempre contromano
    Am                      Bb (fill1)
a chi non butta via la notte coi pensieri

fill3 Gtr 2
|---------|----------|
|---------|----------|
|------10/|/2--------|
|---------|----------|
|---------|----------|
|---------|----------|

a quelli che una coppia è già una folla (fill3)
e dicono che il cielo sia una balla

|---------|----------|
|---------|----------|
|------10/|/7--------|
|---------|----------|
|---------|----------|
|---------|----------|

a quelli che da soli ci stan stretti
e pensano che il cielo sia di tutti
a lui e lei che stanno insieme solo con la colla

  C              Sol-      Bb
E poi a quelli che non ritornano,
certo lassù, forse lassù,
sono capaci di non dormire mai più

F   Am                Bb
Chissà se in cielo passano gli Who
|-------------|----------------|
|-----6-5-6---|----------------|
|---7-------5-|----------------|
|-8-----------|-5/7------------|
|-------------|----------------|
|-------------|----------------|

Chissa se in cielo passano gli Who
|-------------|----------------|
|-----6-5-6---|----------------|
|---7-------5-|----------------|
|-8-----------|-5/7------------|
|-------------|----------------|
|-------------|----------------|

Dm Am                      Bb
Chissà che nome d'arte avrà il dj
      Sol-  C          F
se sceglie sempre e solo tutto lui
      Am               Bb
se prende le richieste che gli fai...

F Am Bb (x2)
|-------------|--------------------|
|---10-8-10-6-|------6-6-5-5-------|
|--10---------|-5/7----------7-----|
|-10----------|----------------5/7-|
|-------------|--------------------|
|-------------|--------------------|

a chi decide di ammazzare il tempo
e il tempo invece servirebbe vivo
a chi sta in giro perchè non ha scelta
perchè comunque il sonno non arriva
a quelli che ogni notte puoi giurarci son presenti

E buonanotte a chi la sa godere,
a quelli che han bisogno di star male,
a chi ha paura di restare fermo,
e sogna un pò più forte quando è sveglio,
a quelli che non hanno mai saputo dove andare,

E poi a quelli che ci salutano,
certo lassù, forse lassù,
sono capaci di non sognare mai più

Chissà se in cielo passano gli Who
Chissa se in cielo passano gli Who
Chissà che nome d'arte avrà il dj
se sceglie sempre e solo tutto lui
se prende le richieste che gli fai...

|-------------|--------------------|
|---10-8-10-6-|------6-6-5-5-------|
|--10---------|-5/7----------7-----|
|-10----------|----------------5/7-| x2
|-------------|--------------------|
|-------------|--------------------|

|-------------|---------------------------|
|---10-8-10-6-|------11-10-10-11-10-------|
|--10---------|-5/7-----------------10-12-|
|-10----------|---------------------------|
|-------------|---------------------------|
|-------------|---------------------------|

|-------------|--------------------------------|
|---10-8-10-6-|--------------------------------|
|--10---------|-5/7-7-7-7/10-10-10-10\7-7-7-7--|
|-10----------|--------------------------------|
|-------------|--------------------------------|
|-------------|--------------------------------|
     
Добавлено: 29.08.2013
Другие материалы по этой песне:
  • Аккорды и текст

Страница создана 29.08.2013
http://primanota.ru/luciano-ligabue/chissa-se-in-cielo-passano-gli-who-2003-chords.htm
Привет, Гость.
Предлагаем пройти революционный курс по гитаре.
Подарок от PrimaNota.Ru, забирай!