PrimaNota.ru - самый крупный в мире бесплатный архив песенных текстов, аккордов, табулатур и нот


Luciano Ligabue - Bar Mario - текст песни, таба, видео

Регистрация Запомнить меня
Войти через:  Facebook Google Twitter Vk Yandex Mail.ru

Luciano Ligabue - Bar Mario - текст песни, таба, видео

Печатать
Просмотров: 83
		   ~~~~~~~~~
BAR MARIO
~~~~~~~~~

Intro: (spesso ripetuta durante la canzone)
[TAB riveduta e corretta da Andrea Zanovello]

  (G)
E:-----------------------------------------------------------------
B:-----------------------------------------------------------------
G:-----------------------------------------------------------------
D:-------5--5---------5---------3--------5--5-----------5--------3-
A:-----------------------3-4-5-----------------------------3-4-5---
E:-2/3-3-------2/3-3----------------3-3---------2/3-3--------------

      Slide mooolto rapido |

  (C)                         (G)
E:------------------------------------------------------------
B:------------------------------------------------------------
G:------------------------------------------------------------
D:------5--5-------5-------3----------5--5---------5-------3---
A:-3-3-------2/3-3---3-4-5---------------------------3-4-5----
E:------------------------------3-3---------2/3-3-------------

G
Il buio arriva ma non e' troppo spietato
C'e' qualche stella e' come un disegno spezzato.
C                                     G
Qualche lampione piccolo lume isolato freddo e perduto.
G
Le strade vuote non c'e' neanche il classico cane
Ha vinto ancora signora televisione
C                                    G
Signora o troia agita il culo sembra con intenzione

Il commendatore gioca la carta sbagliata
il suo compagno proprio non l'ha digerita
pero' sta zitto tanto con lui non si vince mai una partita

Bistecca intanto urla per una primera
e sul suo letto si sta ballando un bolero
sua moglie brucia di febbre di vita e si sta facendo le cure

D                                      C
A guardia si fa un caffe' e poi se ne va
                                            G    C G
Mario da' un colpo di straccio al banco del bar
G                                           C  G
Mario da' un colpo di straccio al banco del bar
C7+                   C                     G
Mario da' un colpo di straccio al banco del bar

Solo:

e:-7-h10--7-h10--7-h10--7-h10--8-7-5--
B:------------------------------------
G:------------------------------------  (x2)
D:------------------------------------
A:------------------------------------
E:------------------------------------

e:----5-\8-7-5\10----5---\12-/10-----
B:-5-3-----------5-3-----------------
G:-----------------------------------
D:-----------------------------------
A:-----------------------------------
E:-----------------------------------

[Altra versione da Andrea Zanovello: piu' corretta
e anche piu' facile da suonare, salvo forse la
mancanza di alcuni slide e l'ultima nota che secondo
me e' uno slide e non un bend. Come sempre siete voi
i giudici]

e:---10-10---10---10---10--8-7--------
B:-8-------8----8----8----------10-8--
G:------------------------------------  (x2)
D:------------------------------------
A:------------------------------------
E:------------------------------------

e:----------8-7-----10----------10b12r10----
B:-----10-------10----------10--------------
G:-9-7------------------9-7-----------------
D:------------------------------------------
A:------------------------------------------
E:------------------------------------------

In quattro stanno sfasciando il bigliardino
fra lui e loro fanno un po' troppo casino
si alza il grosso che dice: *Muti!* e poi tira via le palline

Il cavaliere torna dalla cavalcata
saluta Mario che chiede beh, com'e' andata
lui con le dita fa un numero esagerato proprio impossibile

Dice: *Dammene una e segnamela*

Mario sputa e tira fuori i conti del bar
Mario impreca e tira fuori i conti del bar
Mario sbuffa e tira fuori i conti del bar

Il gatto segna il territorio a suo modo
che sia ben chiaro a qualsiasi altro felino
a meno che sia un bestione violento ed assassino

B sente un tuono ma e' solo rombo che passa
lo stereo a balla cento watt buoni per cassa
il grosso gli urla dove andare e poi gli fa anche la mossa

Tanto rombo domani ripassera'

Mario manda tutti a nanna e poi chiude il bar
Mario manda tutti a nanna e poi chiude il bar
Mario manda tutti a nanna e poi chiude il bar
+-+-+-+-+-+-+-+-+-+-+-+-+-+-+-+-+-+-+-+-+-+-+-+-+-+-+-+-+-+-+-+-+-

     
Добавлено: 21.06.2013
Другие материалы по этой песне:
  • Аккорды и текст

Страница создана 21.06.2013
http://primanota.ru/luciano-ligabue/bar-mario-chords.htm
Привет, Гость.
Предлагаем пройти революционный курс по гитаре.
Подарок от PrimaNota.Ru, забирай!