PrimaNota.ru - самый крупный в мире бесплатный архив песенных текстов, аккордов, табулатур и нот


Luciano Ligabue - Balliamo Sul Mondo.2 - таба, видео

Регистрация Запомнить меня
Войти через:  Facebook Google Twitter Vk Yandex Mail.ru

Luciano Ligabue - Balliamo Sul Mondo.2 - таба, видео

Печатать
Просмотров: 87
Уроки эстрадного вокала в Санкт-Петербурге
		   -------------------------------------------------------------
        Balliamo sul mondo - Assolo-  ( by Dave-hawk )

------------------------------------10--------8--------------
-------5----------8------8-/10b-r-8-----8-10-----------------
-0------------5-7----5-7-------------------------------------
-7-----------------------------------------------------------
-------------------------------------------------------------
-------------------------------------------------------------

-10b-r-10-10-8---------8-10-10-10----8---/10---/12---/15-----
---------------10-8-10---------------------------------------
-----------------------------------/8--/10---/12---/14-------
-------------------------------------------------------------
-------------------------------------------------------------
-------------------------------------------------------------

--8-----/10--/12-12/15----17 17b-r--15p14h15p14--------------
------------------------------------------------15-----------
-8--/10-10-/12-----------------------------------------------
-------------------------------------------------------------
-------------------------------------------------------------
-------------------------------------------------------------

-------------------------------------------------------------
--------------------------------------------15-----15-----15-
-------------------14--------12-14-12----14b--r-14b--r-14b--r
-12-12-12-12-14-12---12-14-12--------------------------------
-------------------------------------------------------------
-------------------------------------------------------------

-----------------17--15-14-15-14-12-10^^^^^^^^---------------
-15-15-15-15--15---------------------------------------------
-14-14-14-14-------------------------------------------------
-------------------------------------------------------------
-----------------------------------------------12\\\\\\\\\\\\
-------------------------------------------------------------

Tabbed by Dave-hawk
davfede@tin.it
     
Добавлено: 23.10.2013
Другие материалы по этой песне:
  • Аккорды и текст

Страница создана 23.10.2013
http://primanota.ru/luciano-ligabue/balliamo-sul-mondo2-chords.htm
Привет, Гость.
Предлагаем пройти революционный курс по гитаре.
Подарок от PrimaNota.Ru, забирай!