PrimaNota.ru - самый крупный в мире бесплатный архив песенных текстов, аккордов, табулатур и нот


Luciano Ligabue - Baby E' Un Mondo Super.2 - таба, видео

Регистрация Запомнить меня
Войти через:  Facebook Google Twitter Vk Yandex Mail.ru

Luciano Ligabue - Baby E' Un Mondo Super.2 - таба, видео

Печатать
Просмотров: 103
Уроки эстрадного вокала в Санкт-Петербурге
		   --------
     BABY E' UN MONDO SUPER - LIGABUE

INTRO

e ----------------------------------------------
B ----------------------------------------------
G ------------------------------2--------------          x1
D -------------------4--2--h4-----4---------
A ---0--4--2----------------------------------
E ---------------2------------------------------


e -----------------------------------------------
B -----------------------------------------------
G ---------------------2------------------------         x 4
D ----------4--2--h4-------4-----------------
A -----------------------------------------------
E ---2------------------------------------------



   by Frido






     
Добавлено: 11.10.2013
Другие материалы по этой песне:
  • Аккорды и текст

Страница создана 11.10.2013
http://primanota.ru/luciano-ligabue/baby-e-un-mondo-super2-chords.htm
Привет, Гость.
Предлагаем пройти революционный курс по гитаре.
Подарок от PrimaNota.Ru, забирай!