PrimaNota.ru - самый крупный в мире бесплатный архив песенных текстов, аккордов, табулатур и нот


Lucha Reyes - Regresa - таба, видео

Регистрация Запомнить меня
Войти через:  Facebook Google Twitter Vk Yandex Mail.ru

Lucha Reyes - Regresa - таба, видео

Печатать
Просмотров: 43
"Regresa" - Lucha Reyes
Guitarra: Augusto Polo Campos
Tablatura transcrita: Elhapps

Posicionar dedo medio en cuerda 1, dedo índice en cuerda 2 y pulgar en cuerda 3.
Para las 6 primeras notas, usar el índice y medio en la 1era cuerda.

e|--9-9-9---9--9--9--|--11p9--------12p9--------11p9--------12p9--------11p9--------12p9-------|
B|-------------------|-------10----------10----------10----------10----------10----------10----|
G|-------------------|----------11----------11----------11----------11----------11----------11-|
D|-------------------|-------------------------------------------------------------------------|
A|-------------------|-------------------------------------------------------------------------|
E|-------------------|-------------------------------------------------------------------------|

e|--11p9-------12p9------11p9------9h11p9---|------------4-5-4-7-5---4---4-5-4-----------------|
B|-------9----------9----------9------------|-----4-5-7----------------7-------7-5-4-7-5-4-----|
G|---------9----------9---------9-----------|---6-------------------------------------------6--|
D|------------------------------------------|-6------------------------------------------------|
A|------------------------------------------|--------------------------------------------------|
E|------------------------------------------|--------------------------------------------------|

e|------------4-5-4------------|--10-9----9--------------------|
B|-----4-5-7--------7-5-4------|-------12---12-10-9-10-9-------|
G|-5-6--------------------5-6--|-------------------------11-10-|
D|-----------------------------|-------------------------------|
A|-----------------------------|-------------------------------|
E|-----------------------------|-------------------------------|

e|--9-9-9---9--9--9--|--11p9--------12p9--------11p9--------12p9--------11p9--------12p9-------|
B|-------------------|-------10----------10----------10----------10----------10----------10----|
G|-------------------|----------11----------11----------11----------11----------11----------11-|
D|-------------------|-------------------------------------------------------------------------|
A|-------------------|-------------------------------------------------------------------------|
E|-------------------|-------------------------------------------------------------------------|

e|--11p9-------12p9------11p9------9h11p9-----9h11p9-----|-10-10-10--14-10--------8-8-8--11-8h9p8----8-9--|
B|-------9----------9---------9-----------9----------9---|-----------------10---------------------11------|
G|---------9----------9---------9-----------9------------|--------------------11--------------------------|
D|-------------------------------------------------------|------------------------------------------------|
A|-------------------------------------------------------|------------------------------------------------|
E|-------------------------------------------------------|------------------------------------------------|

e|-------------9---|
B|-----------9-----|
G|---------9-------|
D|--10-11----------|
A|-----------------|
E|-----------------|
Добавлено: 26.06.2016
Другие материалы по этой песне:
  • Аккорды и текст

Страница создана 26.06.2016
http://primanota.ru/lucha-reyes/regresa-chords.htm
Привет, Гость.
Предлагаем пройти революционный курс по гитаре.
Подарок от PrimaNota.Ru, забирай!