PrimaNota.ru - самый крупный в мире бесплатный архив песенных текстов, аккордов, табулатур и нот


Lucerin Blue - Game - текст песни, таба, видео

Регистрация Запомнить меня
Войти через:  Facebook Google Twitter Vk Yandex Mail.ru

Lucerin Blue - Game - текст песни, таба, видео

Печатать
Просмотров: 141
Lucerin Blue is an awesome band this song is awesome how you like it.


INTRO

eb|-----------------------------------------------------------------------------|
Bb|-----------------------------------------------------------------------------|
F#|------------4--4--4--0--0--0--2--2--2--5--5--4--0---------5-----5--7--7--7---|
C#|---2--2--2------------------------------------------5--0--5--0--5--7--7--7---|
Ab|----------------------------------------------------3--0--3--0--3--5--5--5---|
C#|-------------------------------------------------------0-----0---------------|

eb|-----------------------------------------------------------------------|
Bb|-----------------------------------------------------------------------|
F#|-------4-------2---5---5-----------5---5---5---5-/-7---7---7---7---7---|
C#|---2---4---5---2---5---5-----------5---5---5---5-/-7---7---7---7---7---|
Ab|---2---2---5---0---3---3---2---0---3---3---3---3-/-5---5---5---5---5---|
C#|---2-------5-----------------------------------------------------------|


VERSE

eb|-------------------------------------------------------------------------------|
Bb|-------------------------------------------------------------------------------|
F#|--------------------------11-x-11--12--14---11--12----------9-/-11----12--11---|
C#|---2--0--2---0-+-2--0--0---------------------10--10-------0---------------------|
Ab|---2--0--2---0-+-2--0--0----9-x--9--10--12---10--10-------0--7-/--9----10---9---|
C#|---2--0--2---0-+-2--0--0---------------------10--10--x-x--0----------0----------|
                  + = Hammer
PRE-CHORUS

eb|------------------------------------------------------|
Bb|------------------------------------------------------|
F#|--------12---11---7-----------------------------------|
C#|---10---10----0---0---2---2---2---0---2---2---2---2---|
Ab|---10---10----0---0---2---2---2---0---2---2---2---2---|
C#|---10---10----0---0---2---2---2---0---2---2---2---2---|


CHORUS

eb|-----------------------------------------------------------------------|
Bb|-----------------------------------------------------------------------|
F#|-------4-------2---5---5-----------5---5---5---5-/-7---7---7---7---7---|
C#|---2---4---5---2---5---5-----------5---5---5---5-/-7---7---7---7---7---|
Ab|---2---2---5---0---3---3---2---0---3---3---3---3-/-5---5---5---5---5---|
C#|---2-------5-----------------------------------------------------------|
Добавлено: 13.05.2012
Другие материалы по этой песне:
  • Аккорды и текст

Страница создана 13.05.2012
http://primanota.ru/lucerin-blue/game-chords.htm
Привет, Гость.
Предлагаем пройти революционный курс по гитаре.
Подарок от PrimaNota.Ru, забирай!