PrimaNota.ru - самый крупный в мире бесплатный архив песенных текстов, аккордов, табулатур и нот


Lucerin Blue - Find Me - текст песни, таба, видео

Регистрация Запомнить меня
Войти через:  Facebook Google Twitter Vk Yandex Mail.ru

Lucerin Blue - Find Me - текст песни, таба, видео

Печатать
Просмотров: 100
FIND ME
As recorded by Lucerin Blue
(From the 2003 Album TALES OF THE KNIFE)
        
Tuning drop C# (or Db)   (Dropped D down a half step)
Gtr I (C# G# C# F# A# D#) - 'clean'
Gtr II (C# G# C# F# A# D#) - 'heavy distortion'
    Gtr I
Verse/Intro
    PM-------------------------------------------------------------------|
||------------------|------------------|-----------------|------------------||
||o-----------------|------------------|-----------------|-----------------o||
||------------------|------------------|-----------------|------------------||
||----------7-7-8-8-|---------/8-8-----|---------7-7-----|---------7-7------||
||o-----8-8---------|-----8-8------8-8-|-----8-8-----8-8-|-----8-8-----8-8-o||
||--8-8-------------|-5-5--------------|-0-0-------------|-0-0--------------||


    Gtr II
Chorus
||----------------------|---------------|---------------|-----------------||
||o---------------------|---------------|---------------|----------------o||
||--10--10-10-10--10-10-|-7--7-7-7--7-7-|---------------|-----------------||
||---8---8--8--8---8--8-|-5--5-5-5--5-5-|-0--0-0-0--0-0-|-0--0-0-0--0-0---||
||o--8---8--8--8---8--8-|-5--5-5-5--5-5-|-0--0-0-0--0-0-|-0--0-0-0--0-0--o||
||---8---8--8--8---8--8-|-5--5-5-5--5-5-|-0--0-0-0--0-0-|-0--0-0-0--0-0---||

Play the verse and then the chorus again and then play the stuff below
                                                                         4x
||--------------|------------------|---------------|---------------------||
||o-------------|------------------|---------------|--------------------o||
||--------------|------------------|---------------|---------------------||
||--8-8-8-0-8-8-|-8-0--0-10-10-8-8-|-5-5-5-0---5-5-|-5-0--10-10-10-10----||
||o-8-8-8-0-8-8-|-8-0--0-10-10-8-8-|-5-5-5-0---5-5-|-5-0--10-10-10-10---o||
||--8-8-8-0-8-8-|-8-0--0-10-10-8-8-|-5-5-5-0---5-5-|-5-0--10-10-10-10----||

after this there is a bass and drums interlude and then the verse guitar
 comes in and then the chorus is played to finish the song.  
Its pretty simple.



Добавлено: 01.05.2012
Другие материалы по этой песне:
  • Аккорды и текст

Страница создана 11.03.2012
http://primanota.ru/lucerin-blue/find-me-chords.htm
Привет, Гость.
Предлагаем пройти революционный курс по гитаре.
Подарок от PrimaNota.Ru, забирай!