PrimaNota.ru - самый крупный в мире бесплатный архив песенных текстов, аккордов, табулатур и нот


Lucerin Blue - Chorus Of The Birds - текст песни, таба, видео

Регистрация Запомнить меня
Войти через:  Facebook Google Twitter Vk Yandex Mail.ru

Lucerin Blue - Chorus Of The Birds - текст песни, таба, видео

Печатать
Просмотров: 118
CHORUS OF THE BIRDS
As recorded by Lucerin Blue
(From the 2003 Album TALES OF THE KNIFE)
        
drop c# (drop D a half step down)
Gtr I (C# G# C# F# A# D#) - 'clean/ acoustic'
Gtr II (C# G# C# F# A# D#) - 'Distortion'
INTRO
  Gtr I
|-----------------------|-----------------|
|-----------------------|-----------------|
|-----------------------|-----------------|
|-0-0-10-10-12-12-10-10-|-5-5-7-7-3-3-5-5-|
|-----------------------|---------0-0-0-0-|
|-0-0--0--0--8--8--8--8-|-5-5-5-5---------|


|-----------------------|------------------|
|-----------------------|------------------|
|-----------------------|------------------|
|-0-0-10-10-12-12-10-10-|-7-7-8-8-5-5-7-7--|
|-----------------------|------------------|
|-0-0--0--0--8--8--8--8-|-5-5-5-5-5-5-5-5--|


|-----------------------|-----------------|-----------------------|------|
|-----------------------|-----------------|-----------------------|------|
|-----------------------|-----------------|-----------------------|------|
|-0-0-10-10-12-12-10-10-|-5-5-7-7-3-3-5-5-|-0-0-10-10-12-12-10-10-|-7----|
|-----------------------|---------0-0-0-0-|-----------------------|------|
|-0-0--0--0--8--8--8--8-|-5-5-5-5---------|-0-0--0--0--8--8--8--8-|-5----|


 Pre-verse
    Gtr II
        PM|
||----------------------------------------|-----------------------------------||
||o---------------------------------------|----------------------------------o||
||----7-----10---10----9----9---10---10---|---10-10---10-10---10-10----12-12--||
||--0-7-----10---10---10---10---10---10---|----8--8----7--7----8--8----10-10--||
||o-0-5-0-0--8-0--8-0--7-0--7-0--8-0--8-0-|-8--8--8-7--7--7-8--8--8-10-10-10-o||
||--0---0-0----0----0----0----0----0----0-|-8--8--8-7--7--7-8--8--8-10-10-10--||


  Gtr I
|-------------------------------------------------|
|----10-10-10----11-10-11-10-11-10-11-10----10-10-|
|-10-10-10-10-10----10----10----10----10-10-10-10-|
|-------------------------------------------------|
|-------------------------------------------------|
|-------------------------------------------------|
|
| Gtr II
|-------------------------------------------------|
|-------------------------------------------------|
|-------------------------------------------------|
|--0----------------------------------------------|
|--0----------------------------------------------|
|--0----------------------------------------------|


|----------------------------------------------------|
|-----10-10-10----11-10-11-10-11-10-11-10----10-10---|
|-10--10-10-10-10----10----10----10----10-10-10-10---|
|----------------------------------------------------|
|----------------------------------------------------|
|----------------------------------------------------|
|
|----------------------------------------------------|
|----------------------------------------------------|
|----------------------------------------------------|
|-(0)------------------------------------------------|
|-(0)------------------------------------------------|
|-(0)------------------------------------------------|

Verse
|---------------------------------|---------------------------------|
|---------------------------------|---------------------------------|
|-----5---5-------5---5-------5---|-----5---5-------5---5-------5---|
|---------------------------------|---------------------------------|
|-5-5---5---5-5-5---5---5-5-5---5-|-1-1---1---1-1-1---1---1-1-1---1-|
|---------------------------------|---------------------------------|


|---------------------------------|---------------------------------|
|---------------------------------|---------------------------------|
|-----0---0-------0---0-------0---|---------------------------------|
|---------------------------------|-----3---3-----------2---2-------|
|---------------------------------|---------------------------------|
|-3-3---3---3-3-3---3---3-3-3---3-|-5-5---5---5-5-5-2-2---2---2-2-2-|

this is played by an acoustic guitar, not exactly perfect, comment if you know it better.
||------------------|-----------------|-----------------|-------------------||
||o-----------------|-----------------|-----------------|------------------o||
||--7-7-7-7-7-7-7-7-|-5-5-5-5-5-5-5-5-|-7-7-7-7-7-7-7-7-|-5-5-5-5-5-5-5-5---||
||--7-7-7-7-7-7-7-7-|-5-5-5-5-5-5-5-5-|-7-7-7-7-7-7-7-7-|-5-5-5-5-5-5-5-5---||
||o-5-5-5-5-5-5-5-5-|-3-3-3-3-3-3-3-3-|-5-5-5-5-5-5-5-5-|-3-3-3-3-3-3-3-3--o||
||------------------|-----------------|-----------------|-------------------||

CHORUS
  Gtr II
      PM|
|---------------------------------------|
|---------------------------------------|
|---7-----10---10----9----9---10---10---|
|-0-7-----10---10---10---10---10---10---|
|-0-5-0-0--8-0--8-0--7-0--7-0--8-0--8-0-|
|-0---0-0----0----0----0----0----0----0-|


      PM|
|-----------------------------------------|
|-----------------------------------------|
|---------10---10----9----9---10---10-----|
|-0-8-----10---10---10---10---10---10-----|
|-0-8-8-8--8-0--8-0--7-0--7-0--8-0--8-0---|
|-0-8-8-8----0----0----0----0----0----0---|


                                              PM
|---------------------5-6-5-|------------------------------------|
|-------5-------5-----6-6-6-|---------5-5-5-5--------------------|
|-------x-------x-----------|---------x-x-x-x--------------------|
|-3-3-3-2-x-3-3-2-x-3-------|-3-3-3-3-2-2-2-2---0-x-10-8-8-10-12-|
|-3-3-3-3-x-3-3-3-x-3-------|-3-3-3-3-3-3-3-3-0-0-x-10-8-8-10-12-|
|-3-3-3-3-x-3-3-3-x-3-------|-3-3-3-3-3-3-3-3-0-0-x-10-8-8-10-12-|


This is the acoustic part for the second verse
  Gtr I
|-------------------------|-------------------------|
|-------------------------|-------------------------|
|--9--9--9-10-10-10-10-10-|--9--9--9-10-10-10-10-10-|
|-10-10-10-10-10-10-10-10-|-10-10-10-10-10-10-10-10-|
|--7--7--7--8--8--8--8--8-|--7--7--7--8--8--8--8--8-|
|-------------------------|-------------------------|


|-------------------------|--------------------|
|-------------------------|--------------------|
|--9--9--9-10-10-10-10-10-|--9--9--9-7-7-7-7-7-|
|-10-10-10-10-10-10-10-10-|-10-10-10-7-7-7-7-7-|
|--7--7--7--8--8--8--8--8-|--7--7--7-5-5-5-5-5-|
|-------------------------|--------------------|


|--------------------|--------------------|-----------------|
|--------------------|--------------------|-----------------|
|-10-10-10-------7-7-|-7-7-7-7-10-10-10---|-----7-7-7-7-7-7-|
|-10-10-10-8-8-8-7-7-|-7-7-7-7-10-10-10-8-|-8-8-7-7-7-7-7-7-|
|--8--8--8-8-8-8-5-5-|-5-5-5-5--8--8--8-8-|-8-8-5-5-5-5-5-5-|
|----------8-8-8-----|------------------8-|-8-8-------------|

BRIDGE
    Gtr II
||------------------------------------|
||o-----------------------------------|
||------------------------------------|
||--8-8-10--10--10--10-10-10--10--10--|
||o-8-8--8---7---8--10-10--7---8---7--|
||--8-8-------------10-10-------------|


|---------------------------------------------||
|--------------------------------------------o||
|---------------------------------------------||
|-12-12-10--10--10--10-10-10-10-10-10-10-10---||
|-12-12--7---8---7---7--8--8--7--8--7-10-10--o||
|-12-12-------------------------------10-10---||


|---------------------------------|
|---------------------------------|
|---------------------------------|
|-8-8-8-8-8-8-8-8-8-8-8-8-8-8-8-8-|
|-8-8-8-8-8-8-8-8-8-8-8-8-8-8-8-8-|
|-8-8-8-8-8-8-8-8-8-8-8-8-8-8-8-8-|


|---------------------------------------------------|
|---------------------------------------------------|
|---------------------------------------------------|
|-10-10-10-10-10-10-10-10-10-10-10-10-10-10-10-10---|
|-10-10-10-10-10-10-10-10-10-10-10-10-10-10-10-10---|
|-10-10-10-10-10-10-10-10-10-10-10-10-10-10-10-10---|

OUTRO
|-5-5-------1-1--1-1-|-5-5-------1-1--1-1-|
|-6-6-------1-1--1-1-|-6-6-------1-1--1-1-|
|-7-7-------3-3--3-3-|-7-7-------3-3--3-3-|
|-7-7--3-3--3-3--3-3-|-7-7--3-3--3-3--3-3-|
|-5-5--3-3--1-1--1-1-|-5-5--3-3--1-1--1-1-|
|------3-3-----------|------3-3-----------|

Добавлено: 25.06.2012
Другие материалы по этой песне:
  • Аккорды и текст

Страница создана 19.04.2012
http://primanota.ru/lucerin-blue/chorus-of-the-birds-chords.htm
Привет, Гость.
Предлагаем пройти революционный курс по гитаре.
Подарок от PrimaNota.Ru, забирай!