PrimaNota.ru - самый крупный в мире бесплатный архив песенных текстов, аккордов, табулатур и нот


Luca Turilli - War Of The Universe - текст песни, таба, видео

Регистрация Запомнить меня
Войти через:  Facebook Google Twitter Vk Yandex Mail.ru

Luca Turilli - War Of The Universe - текст песни, таба, видео

Печатать
Просмотров: 136
************************************************************************************
* LUCA TURILLI - WAR OF THE UNIVERSE (From the Album: PROPHET OF THE LAST ECLIPSE) *
************************************************************************************
 Music and Words By: Luca Turilli

Transcribed By: Niclas Buss
I didn't tab this, I found it on Niclas Buss's site and uploaded it here, all credit goes to him.

  Intro                                                                       Riff 1
E-----------------------------------------------------------------------------------|
B---------------------------------------------------------------------------|-------|
G---------------------------------------------------------------------------|*------|
D------------------------------------------2~-\-----------------------------|*------|
A--------------4-3-3~-\----------------4-3------\--------------4-3-3~-\-----|-------|
E--1-1-4-3-4-4----------\--1-1-4-3-4-4-------------1-1-4-3-4-4-----------0~----1-1-1|
                                                                              pm....

E-----------------------------------------------------------------------------------|
B-----------------------------------------------------------------------------------|
G-----------------------------------------------------------------------------------|
D-----------------------------------------------------------------------------------|
A-------------------------1-----1-3-4-3-1-----/3-3-3-3-3-3-3-3-3-3-3-3-3-3-3-3/4-3-1|
E-1-1-1-1-1-1-1-1-1-1-3-4---3-4-----------4-3---------------------------------------|
 ...................................................................................

E-----------------------------------------------------------------------------------|
B-----------------------------------------------------------------------------------|
G-----------------------------------------------------------------------------------|
D-----------------------------------------------------------------------------------|
A/3-3\1-1----------------------------------------1-----1-3-4-3-1-----/3-3-3-3-3-3-3-|
E---------4-4\3-3-\1-1-1-1-1-1-1-1-1-1-1-1-1-3-4---3-4-----------4-3----------------|
 ...................................................................................

                        (end Intro, Riff 1) x2    Verse 1
E----------------------------------------------||-----------------------------------|
B----------------------------------------------||-----------------------------------|
G---------------------------------------------*||----------------------------------3|
D---------------------------------------------*||--------------------------3-5-3-5--|
A-3-3-3-3-3-3-3-3-3-3-3/4-4\3-3\1-1------------||---------------1~-3\---5~----------|
E-----------------------------------4h6p4p3-\--||--1\---3~-4\-----------------------|
 ..................................|                                      pm........

E-----------------------------------------------------------------------------------|
B-------3h4p3-----------------------------------------------A.H.--------------------|
G-5-3-5-------5-3--------------------------------0-0-0-0---0-3~~--------------------|
D-----------------6-5\2h3\-----------------3~-\1------------------------------------|
A-----------------------------------1~-3\----------------3--------------------------|
E---------------------------3~-4\---------------------------------1-1-1-1-1-1-1-1-1-|
 ......|     pm.........|                       pm..........|    pm.................

E-----------------------------------------------------------------------------------|
B-----------------------------------------------------------------------------------|
G-----------------------------------------------------------------------------------|
D-----------------------------------------------------------------------------------|
A-------------------------------------------------1-1-1-1/3-3-3-3-3-3-3-3-3-3-3-3/5-|
E-1-1-1-1/3-3-3-3/4-4-4-4-4-4-4-4-4-4-4-4-4-4-4-4-----------------------------------|
 ...................................................................................

E-----------------------------------------------------------------------------------|
B------------------------3h4p3------------------------------------------------------|
G----------------3-5-3-5-------5-3--------------------------------------------------|
D--------3-5-3-5-------------------6-5\2h3-3-3-3-3-3-3-3-3-3-3-3--------------------|
A-5-5-5-----------------------------------------------------------------------------|
E----------------------------------------------------------------\3-3-3-3/4-4-4-4-4-|
 .......................|     pm....................................................

                                                                               Bridg
E-----------------------------------------------------------------------------------|
B---------------------------------------------------------------------A.H.---|------|
G----------------------------------------------------------0-0-0-0---0-3~~-\-|---6--|
D-----------------------------------------------/3-3-3-3\1-------------------|---6--|
A---------------1-1-1-1/3-3-3-3-3-3-3-3-3-3-3-3--------------------3---------|---4--|
E-4-4-4-4-4-4-4---------------------------------------------------------------------|
 .....................................................................|

 e                                                             Chorus
E-----------------------------------------------------------------------------------|
B------------------------------------------------------------|----------------------|
G--8-----------6----/13p10----\10p7---\7p4---\4p1----5~------|--------/-8-----------|
D--8-----6-----6-----------12-------9------6------3--5~------|--6---6-/-8--------3--|
A--6-----6-----4-------------------------------------3~--x\--|--6---6-/-6--------3--|
E--------4-----------------------------------------------x\-----4---4------4~-3~-1--|
                   pm..............................|

E-----------------------------------------------------------------------------------|
B-----------------------------------------------------------------------------------|
G---------5-------------------3-----------------------------------------------------|
D---------5--------3h5p3------3---------------------------------------------------7-|
A---------3--3h5h6-------6p5--1--3h4~--------------------------/5-7-5-7-8-7-5-7-8---|
E--3h4h6------------------------------1~-3~-4~-1~-/3~-5~-7~-3~----------------------|
                                                               pm...................

E-----------------------------------------------------------------------------------|
B------A.H.-------------------------------------------------------------------------|
G-------5~-------/-8--8-------------------5-------------------3---------------------|
D-7\5-5------6---/-8--8--------3----------5--------3h5p3------3---------------------|
A------------6---/-6--6--------3----------3--3h5h6-------6p5--1--3h4~---------------|
E------------4-----------4~-3~-1---3h4h6------------------------------1~-3~-4~-1~-/-|
 ......|

                                           Verse 2
E-----------------------------------------------------------------------------------|
B---------------------------|---Riff-1---|------------------------------------------|
G---------------------------|----one-----|------------------------------------------|
D---------------------------|---Time-----|------------------------------------------|
A-------------/3~-----------|----only----|------------------------------------------|
E-3~-5~-7~-3~-----6~-4~-3~------------------1-1-1-1-1-1-1-1-1-1-1-1/3-3-3-3/4-4-4-4-|
                                           pm.......................................

E-----------------------------------------------------------------------------------|
B--------------------------------------------------------------------------3h4p3----|
G------------------------------------------------------------------3-5-3-5-------5-3|
D----------------------------------------------------------3-5-3-5------------------|
A-----------------1-1-1-1/3-3-3-3-3-3-3-3-3-3-3-3/5-5-5-5---------------------------|
E-4-4-4-4-4-4-4-4-------------------------------------------------------------------|
 ..........................................................................|    pm..

E-----------------------------------------------------------------------------------|
B-----------------------------------------------------------------------------------|
G-----------------------------------------------------------------------------------|
D-6-5\2h3-3-3-3-3-3-3-3-3-3-3-3-----------------------------------------------------|
A----------------------------------------------------------------1-1-1-1/3-3-3-3-3-3|
E-------------------------------\3-3-3-3/4-4-4-4-4-4-4-4-4-4-4-4--------------------|
 ...................................................................................

                                                                         Interlude
E-----------------------------------------------------------------------------------|
B-----------------------------------A.H.-----|------------|------------|------------|
G------------------------0-0-0-0---0-3~---\--|---Bridge---|---Chorus---|------------|
D-------------/3-3-3-3\1---------------------|------------|------------|------------|
A-3-3-3-3-3-3--------------------3-----------|------------|------------|------------|
E-------------------------------------------------------------------------1-1-4-3-4-|
 ...................................|
                                                                    Guitar Solo 1
E-----------------------------------------------------------------------------------|
B-----------------------------------------------------------------|-----------------|
G-----------------------------------------------------------------|*-------------/10|
D--------------------------------2~-\-----------------------------|*-10h11p10h11----|
A---4-3-3~--\----------------4-3------\-------------4-3-3~-\------|-----------------|
E-4-----------\--1-1-4-3-4-4------------1-1-4-3-4-4-----------0~--------------------|

E------------------------------------------------------------------------------6h8p6|
B----------9h11p9h11-/13h14h13p14-\11h13p11h13-\-7h9p7h9-A.H.----------7h9p7h9------|
Gh12p10h12------------------------------------------------6~~--6h8p6h8--------------|
D-----------------------------------------------------------------------------------|
A-----------------------------------------------------------------------------------|
E-----------------------------------------------------------------------------------|

                                  T.Bar    x2                      T
Eh8-/9h11p9h11--8h9p8h9-----------effect---------12p7-7-------------------13p8-8----|
B-----------------------9h11p9h11-A.H.--------|---------8-8p5-5h8-12p8p5---------9-9|
G---------------------------------10/\/\/----*|-------------------------------------|
D--------------------------------------------*|-------------------------------------|
A---------------------------------------------|-------------------------------------|
E-----------------------------------------------------------------------------------|

         T                         T                        T       T    T    T    T
E---------------/12p7-7-------------------13p8-8------------------------------------|
Bp6-6h9-13p9p6----------8-8p5-5h8-12p8p5---------9-9p6-6h9-13p9p6-------------------|
G-----------------------------------------------------------------/15p5-12p5-13p5-10|
D-----------------------------------------------------------------------------------|
A-----------------------------------------------------------------------------------|
E-----------------------------------------------------------------------------------|

     T    T     T  T   T    T    T    T      T    T                 Guitar Solo 2 (T
E-----------------------------------------------------------------------------------|
B-------------------------------------------------------/8h9p8h9--|--14-----------14|
Gp5-12p5-\9p5-10p5-7p5-9p5-10p5-12p5-10p5-9h10p9h10p9p5-----------|--15--15-15-15-15|
D-----------------------------------------------------------------|------15-15-15---|
A-----------------------------------------------------------------|-----------------|
E-----------------------------------------------------------------------------------|

 wo Guitars)                                                      A.H.....|
E-13-/16--15--13------------------13-/16--15--13--15~-------------15b(16)~-r15------|
B-14-/18--16--14--13-----------13-13-/18--17--14------15--17--18--------------------|
G-----------------13--13-13-13-13---------------------------------------------------|
D---------------------15-15-15------------------------------------------------------|
A-------------------------------------------------------------------------------\15-|
E-----------------------------------------------------------------------------------|

E----------12/15h20p15----------15h20~~--------------------13-/16--15--13-----------|
B-------13-------------17----17-----------\14-----------14-14-/18--16--14--13-------|
G----12-------------------17--------------\15--15-15-15-15-----------------13--13-13|
D-14-------------------------------------------15-15-15------------------------15-15|
A-----------------------------------------------------------------------------------|
E-----------------------------------------------------------------------------------|

                                       A.H.
E-------13-/16--15--13-/18--15--16--18--20b(21)~----------------------/16~-18~-20~~-|
B----13-13-/18--17--14---/---/---/---/-----------18b(20)~--r18~-------/18~-20~-21~~-|
G-13-13------------------/---/---/---/-----------19b(21)~--r19--17~-----------------|
D-15---------------------/---/---/---/--------------------------18~-----------------|
A-----------------------------------------------------------------------------------|
E-----------------------------------------------------------------------------------|

E-\---------------------------------------------------------------------------------|
B-\--|------------|---Riff-1---|----------------------------------------------------|
G----|---Chorus---|----one-----|----------------------------------------------------|
D----|------------|---time-----|----------------------------------------------------|
A----|------------|----only----|----------------------------------------------------|
E---------------------------------1--1-1-1--1-1-1--1-1/2--2-2-2--2-2-2--2-2/3--3-3-3|
                                 pm.................................................

E-----------------------------------------------------------------------||
B-----------------------------------------------------------------------||
G-----------------------------------------------------------------------|| end
D-----------------------------------------------------------------------||
A---------------------------------------------------------------3\------||
E-3-3-3--3-3/4--4-4-4--4-4-4--4-4\1-1-1--1-1-1--1-1-1~-3~-4~-3~----\----||
 ..................................................|

----------------------------------------------------------------------------------

  Rhythm Guitar during Guitar Solos
E-----------------------------------------------------------------------------------|
B-----------------------------------------------------------------------------------|
G---------------------------------------------------/9---10---9---10---\5~~---------|
D---3-----4-----4-----3-----3-----4------4-----3----/9---10---9---10---\5~~---------|
A---3-----4-----4-----3-----3-----4------4-----3----/7---8----7---8----\3~~-\-1~-3~-|
E---1-----2-----2-----1-----1-----2------2-----1------------------------------------|

E-----------------------------------------------------------------------------------|
B-----------------------------------------------------------------------------------|
G-----------------------------------------------------------------------------------|
D-----------------------------------------------------------------------------------|
A-4~-3-4---------------------------/3~-5~-7~-3~--\1~-3~-4~-3-4----------------------|
E--------\1~-3~-4~-1~-/3~-5~-7~-3~------------------------------\1~-3~-4~-1~-/3~-5~-|

E---------------------------------------||
B---------------------------------------||
G---------------------------------------|| end
D---------------------------------------|| 
A-------/3~-----------------------------||
E-7~-3~------6~---4~---3~--4-3-4~~---\--||

Добавлено: 02.04.2012
Вам также может быть интересно:
Другие материалы по этой песне:

Страница создана 02.04.2012
http://primanota.ru/luca-turilli/war-of-the-universe-chords.htm
Привет, Гость.
Предлагаем пройти революционный курс по гитаре.
Подарок от PrimaNota.Ru, забирай!