PrimaNota.ru - самый крупный в мире бесплатный архив песенных текстов, аккордов, табулатур и нот


Luca Turilli - Rider Of The Astral Fire - текст песни, таба, видео

Регистрация Запомнить меня
Войти через:  Facebook Google Twitter Vk Yandex Mail.ru

Luca Turilli - Rider Of The Astral Fire - текст песни, таба, видео

Печатать
Просмотров: 154
Уроки эстрадного вокала в Санкт-Петербурге
*****************************************************************************************
* LUCA TURILLI - RIDER OF THE ASTRAL FIRE (From the Album: PROPHET OF THE LAST ECLIPSE) *
*****************************************************************************************

Transcribed By: Niclas Buss
I didn't tab this, I found it on Niclas Buss's site and uploaded it here, all credit goes to him.

 Normal Tuning!!

                    Dist.Guitar enters at (0:15)
E-----------------------------------------------------------------------------------|
B-----------------|-----------------------------------------------------------------|
G---Synth-Intro---|---7---5----------/7---5-----------------------------------------|
D-----------------|---7---5---8---7--/7---5---8---7---------7-----------------------|
A-----------------|---5---3---8---7--/5---3---8---7---------7----------/5--5-5-5-5--|
E-----------------------------6---5-----------6---5--6h8p6~-5--6h8p6~---------------|
                                                                      pm............

E-----------------------------------------------------------------------------------|
B-----------------------------------------------------------------------------------|
G-----------------------------------------------------------------------------------|
D-----------------------------------------------------------------------------------|
A-5--5--5-\3--3-3-3-3--3--3--3--------------------------------------------/5--5-5-5-|
E------------------------------\6--6-6-6-6--6--6--6-\5--5-5-5-5--5--6--8------------|
 ...................................................................................

E-----------------------------------------------------------------------------------|
B-----------------------------------------------------------------------------------|
G-----------------------------------------------------------------------------------|
D-----------------------------------------------------------------------------------|
A-5--5--5--5-\3--3-3-3-3--3--3--3---------------------------------------------------|
E---------------------------------\6--6-6-6-6--6--6--6-\5--5-5-5-5--6h8p6--5--5-5-5-|
 .................................................................|       pm........

                                                        Riff 1 (Guitar 1)
E-----------------------------------------------------------------------------------|
B-----------------------------------------------------|-----------------13----------|
G-----------------------------------------------------|*-------14-12-14----14-------|
D-----------------------------------------------------|*--12~-----------------15~-\-|
A-----------------------------------------------------|-----------------------------|
E-5--6h8p6--5--5-5-5-5--5--5--5--5--5-5-5-5--5--5--5--------------------------------|
 ..|       pm.......................................|

E-----------------------------------------------------------------------------------|
B--------------15-11-------------------13-------------------------------------------|
G-----14-12-14-------12~------14-12-14----14-----/15-12----12---------------14-12-14|
D-12~--------------------12~-----------------15~--------14----15~-12~--12~----------|
A-----------------------------------------------------------------------------------|
E-----------------------------------------------------------------------------------|
                                                              _____________________ 
                                                             |1.                   |
E------------------------------------------------------------|---------------------||
B-13-----------------------15-11-------------------13--------|---------------------||
G----14-----------14-12-14-------12~------14-12-14----14-----|--------------------*||
D-------15~-\12~---------------------12~-----------------15~-|----------14-12-----*||
A------------------------------------------------------------|--12~-15~-------15~--||
E------------------------------------------------------------|---------------------||
  _____________________________________________________ 
 |2.                                                   |   Riff 1 (Guitar 2)
E|-----------------------------------------------------||---------------------------|
B|-----------------------------------------------------||---------------------------|
G|-----------------------------------------------------||*--7-----------------------|
D|----------14-12--------------14-12------\-10~~---\---||*--7-----------------------|
A|--12~-15~-------15~--12~-15~-~-----15~--\-10~~---\---||---5-5-5-5-5-5-5-5-5-5-5-5-|
E|----------------------------------------\--8~~---\---||---------------------------|
                                                             pm.....................

E-----------------------------------------------------------------------------------|
B-----------------------------------------------------------------------------------|
G----------------------------------------------------------------/7-----------------|
D----------------------------------------------------------7~-7~-/7-----------------|
A-5-5-5-5-5-5-5-5-5-5-5-5-5-5-5-5-5-5-5-5-5-5-5-5-5--------5~-5~-/5-5-5-5-5-5-5-5-5-|
E----------------------------------------------------3~-1~-5~-5~--------------------|
 ..................................................|               pm...............

E-----------------------------------------------------------------------------------|
B-------------------------------------------------------------------------|---------|
G------------------------------------------------------------------------*|---------|
D------------------------------------------------------------------------*|---------|
A-5-5-5-5-5-5-5-5-5-5-5-5-5-5-5-5-5-5-5-5-5-5-5-5-5-5-5-5-----3~-7-5-3~---|-----3~-7|
E----------------------------------------------------------5~----------------5~-----|
 ........................................................|

        (end Intro)   Verse 1
E------------------||---------------------------------------------------------------|
B------------------||---------------------------------------------------------------|
G-------5~~----\---||*--------------------------------------------------------------|
D-------5~~----\---||*--0-0-0-0-0-0-0-0-0-0-0-0-------------------------------------|
A-5-3~--3~~----\---||---------------------------\0-0-0-0-0-0-0-0-0-0-0-0-/8-8-8-8-8-|
E------------------||---------------------------------------------------------------|
                       pm...........................................................

E-----------------------------------------------------------------------------------|
B-----------------------------------------------------------------------------------|
G-----------------------------------------------------------------------------------|
D----------------------3-----------0-0-0-0-0-0-0-0-0-0-0-0--------------------------|
A-8-8-8-8-8-8-8-\3-5-7---7-5-3-7~--------------------------\0-0-0-0-0-0-0-0-0-0-0-0-|
E-----------------------------------------------------------------------------------|
 ...................................................................................

                                                  x2   Bridge (1)
E-----------------------------------------------------------------------------------|
B----------------------------------------------------|------------------------------|
G---------------------------------------------------*|------------------------------|
D--------------------------------3-7p5p3---5p3------*|------------------------------|
A/8-8-8-8-8-8-8-8-8-8-8-8-\3-5-7---------7-----7p5---|--------8~-10~-------7~-8~----|
E-------------------------------------------------------6\-6----------5\-5-------4\-|
 .................................|                    pm...|        pm...|     pm..

                                                                   Bridge (2)
E--------------------A.H.-----------------------------------------------------------|
B-------------------2h3~-p2------------------------|-------------|------------------|
G-----------------2---------2-----6~---------------|---Verse-2---|------------------|
D-----6---------2-------------2---7~--7-5----------|-------------|------------------|
A-7-8---8-7~--0-------------------4~------8-7-5\---|-------------|--------8~-10~----|
E---------------------------------5~--------------------------------6\-6----------5\|
 ........|   pm......|                   pm..|                     pm...|        pm.

                                                            Chorus
E-------------------------------A.H.------------------------------------------------|
B------------------------------2h3~-p2--------------------|-------------------------|
G----------------------------2---------2----/6~-----------|-------5---7-------3-----|
D------------------6-------2-------------2--/7~--7-5------|---3---5---7---7---3---5-|
A---7~-8~------7-8---8~--0------------------/4~------8-7--|---3---3---5---7---1---5-|
E-5-------4\-4------------------------------------------------1-------5---5-------3-|
 ..|     pm.........|   pm.....|                    pm..|

E-----------------------------------------------------------------------------------|
B-----------------------------------------------------------------------------------|
G--5-----------7---------------------------------------5---7-------3---5-----------7|
D--5------7----7--\-5------0h3/5-----3-----5-----\-3---5---7---7---3---5--/3-5-7-3--|
A--3--3~--7----5--\-5--1h3-------3-3---3-3---3---\-3---3---5---7---1---3------------|
E--3------5-------\-3----------------------------\-1-------5---5--------------------|
                                pm..| pm..| pm                           pm.........

                                                                        Interlude
E-----------------------------------------------------------------------------------|
B------------------------------------------------------8---/11p8---8--|-------------|
G-5-3---\2----7---------------------------------6--0h6---6-------9----|--7\---5-5/7\|
D-----3-\2----7--\-5------0h3/5-----3-----5-----5---------------------|--7\---5-5/7\|
A-------\0----5--\-5--1h3-------3-3---3-3---3---4---------------------|--5\---3-3/5\|
E----------------\-3----------------------------------------------------------------|
 ......|                       pm..| pm..| pm         pm............|

E-----------------------------------------------------------------------------------|
B-----------------------------------------------------------------------------------|
G---------5-5/7-\-3~---7\---5-5/7\------------5-5/7-\-3~----------------------------|
D--7-7\---5-5/7-\-3~---7\---5-5/7\----7-7\----5-5/7-\-3~----------------------------|
A--7-7\---3-3/5-\-1~---5\---3-3/5\----7-7\----3-3/5-\-1~---5-5-5-5-5\3-3/5-5-5-5-5\0|
E--5-5\-------------------------------5-5\------------------------------------------|
                                                          pm........................

E-----------------------------------------------------------------------------------|
B-----------------------------------------------------------------------------------|
G--------------------\3~----------------------------------------------\3~-------3~--|
D--------------------\3~----------------------------------------------\3~-----0h3~--|
A-0-/5-5-5-5-5\3-3/5-\1~--5-5-5-5-5\3-3/5-5-5-5-5\0-0/5-5-5-5-5\3-3/5-\1~-3-3---1~--|
E-----------------------------------------------------------------------------------|
 ....................|  pm...........................................|   pm....|

E-----------------------------------------------------------------------------------|
B-----------------------------------------------------------------------------------|
G-------/-7~~--------7~~------------------------------------------------------------|
D-----0-/-7~~--------7~~------------------------------------------------------------|
A-3-3---/-5~~--------5~~---------5-5--5/8-7-5-5-5--5/8-7-5-5-5--5/8-7-5-5-5--5/8-7-5|
E-------/-5~~--------5~~------------------------------------------------------------|
 pm....|                        pm..................................................

                                      Guitar Solo
E--------------------------------------10----/13----12p9------/9----/10----13----/15|
B-----------------------------------|-----10-----10------10------10-----10----10----|
G-----------------------------------|-----------------------9-----------------------|
D----------------------------6------|-----------------------------------------------|
A-5-5\---5-5\---5-5\---5-5-7---8-7--|-----------------------------------------------|
E---------------5-5\----------------------------------------------------------------|
 .....| pm...| pm...|

Ep12----12-------/13----17----15p12----12-------16p12-------/19p16--------21-p17----|
B----13----13--------13----13-------13----13----------12-----------17-------------17|
G-------------12-----------------------------12----------13-----------16------------|
D-----------------------------------------------------------------------------------|
A-----------------------------------------------------------------------------------|
E-----------------------------------------------------------------------------------|

E------\-10----13----12p9------9----/10----13----/15p12----12-------/13----17----15p|
B-----------10----10------10-----10-----10----10--------13----13--------13----13----|
G-18~------------------------9-----------------------------------12-----------------|
D-----------------------------------------------------------------------------------|
A-----------------------------------------------------------------------------------|
E-----------------------------------------------------------------------------------|

                                                                  A.H.........|
E12----12-------16p12-------/19p16-------21p17----------17-19-21-21b(22)~-r21~~-\---|
B---13----13----------12-----------17----------17----17---------------------------\-|
G------------12----------13-----------16----------18--------------------------------|
D-----------------------------------------------------------------------------------|
A-----------------------------------------------------------------------------------|
E-----------------------------------------------------------------------------------|
 
  Interlude 2
E-----------------------------------------------------------------------------------|
B-----------------------------------------------------------------------------------|
G-----------------------------------------------------------------------------------|
D--6-6-----6-6-----/7-7-----7-7-----/6-6-----6-6-----/7---6---4-------7-7-----7-7---|
A------4-4-----4-4------5-5-----5-5------4-4-----4-4----5---5---5-5-5-----5-5-----5-|
E-----------------------------------------------------------------------------------|
      pm..|   pm..|    pm..|   pm..|    pm..|   pm..|  pm  pm  pm....|   pm..|   pm.

E-----------------------------------------------------------------------------------|
B-----------------------------------------------------------------------------------|
G-----------------------------------------------------------------------------------|
D---/8-8-----8-8-----/7-7-----7-7-----/8---7---5--------------------------------4---|
A-5------6-6-----6-6------5-5-----5-5----6---6---6-6-6--\-4~-4/7-5~--7-5-4~-4/7---7-|
E-----------------------------------------------------------------------------------|
 ..|    pm..|   pm..|    pm..|   pm..|  pm  pm  pm....|
                                                        Bridge (3) with Fill 1
E-----------------------------------------------------------------------------------|
B---------------------------------------|-------------|-----------------------------|
G---------------------------------------|--Orchestra--|-----------------------------|
D----------------------------5----------|-------------|-----------------------------|
A-5~--5~-5/8-6~--8-6-5~--5/8---8-6~-\---|-------------|--------8~-10~-------7~-8~---|
E-------------------------------------\------------------6\-6---------5\-5--------4\|
                                                        pm...|       pm...|      pm.

                                             Chorus (2)
E------------------A.H.-------------------------------------------------------------|
B-----------------2h3~-2-------------------|----------------------------------------|
G---------------2--------2-----------------|*------5---7-------3-------5----------7-|
D-------------2------------2-----/7-5------|*--3---5---7---7---3---5---5-----7----7-|
A----8~-7~--0-------------------------8-7--|---3---3---5---7---1---5---3--3~-7----5-|
E-4--------------------------5~~---------------1-------5---5-------3---3-----5------|
 ..|       pm.....|                  pm..|

E-----------------------------------------------------------------------------------|
B-----------------------------------------------------------------------------------|
G---------------------------------------5---7-------3---5-----------7-5-3---\2----7-|
D--\-5------0h3/5-----3-----5-----\-3---5---7---7---3---5--/3-5-7-3-------3-\2----7-|
A--\-5--1h3-------3-3---3-3---3---\-3---3---5---7---1---3-------------------\0----5-|
E--\-3----------------------------\-1-------5---5-----------------------------------|
                 pm..| pm..| pm                           pm...............|
                ___________________ ________________________________________
               |1.                 |2.                                      |  Outro
E--------------|-------------------|----------------------------------------||------|
B--------------|-------------------|-------------------------8---/11p8---8--||------|
G--------------|------------------*|------------------6~-0h6---6-------9----||---7--|
D--\-5------0h3|/5-----3-----5----*|/5-----3-----5----5~--------------------||---7--|
A--\-5--1h3----|---3-3---3-3---3---|---3-3---3-3---3--4~--------------------||---5--|
E--\-3---------|-------------------|----------------------------------------||------|
                  pm..| pm..| pm      pm..| pm..| pm        pm............|

E-----------------------------------------------------------------------------------|
B-----------------------------------------------------------------------------------|
G-5-----------/7---5----------------------------------------------------------------|
D-5---8---7---/7---5---8---7---------7----------------------------------------------|
A-3---8---7---/5---3---8---7---------7----------/5--5-5-5-5--5--5--5-\3--3-3-3-3--3-|
E-----6---5------------6---5--6h8p6~-5--6h8p6~--------------------------------------|
                                               pm...................................
 
E-----------------------------------------------------------------------------------|
B-----------------------------------------------------------------------------------|
G-----------------------------------------------------------------------------------|
D-----------------------------------------------------------------------------------|
A-3--3--------------------------------------------/-5--5-5-5-5--5--5--5-\3--3-3-3-3-|
E------\6--6-6-6-6--6--6--6--\5--5-5-5-5--5--6--8-----------------------------------|
 ...................................................................................

E--------------------------------/-5~~--5~~--5~~--5~~----------||
B--------------------------------/-5~~--5~~--5~~--5~~----------||
G--------------------------------/-6~~--6~~--6~~--6~~---7\-----|| end
D--------------------------------/-7~~--7~~--7~~--7~~---7\-\---||
A--3--3--3----------------------------------------------5\-\---||
E----------\6--6-6-6-6--6--6--6-------------------------5\-\---||
 ...............................|

-------------------------------------------------------------------------------------

  Fill 1 (I'm not quite sure here)
E--22~----\20-18-17-----------------------------------------------------------------|
B---/---------------20-18-17\15-----------------------------------------------------|
G---/---------------------------17-15-14\12-----------------------------------------|
D---/---------------------------------------15-14-12\10-------------------------/7-5|
A-------------------------------------------------------13-12-10\8------------------|
E------------------------------------------------------------------12-10-8\6-5~-----|

E-------||
B-------||
G-------|| end
D-------||
A-8-7---||
E-------||
 pm..|

  Rhythm Guitar during Guitar Solo
E-----------------------------------------------------------------------------------|
B-----------------------------------------------------------------------------------|
G-----------------------------------------------------------------------------------|
D---------------------5~-------7~-5~----6~----7~-----------------------------5-5----|
A--5~-8~-7~-\4~-5~-8~----7~/8--------7~----7~----7~-\5-5-8-8-7-7\4-4/5-5-8-8-----7-7|
E-----------------------------------------------------------------------------------|
                                                   pm...............................

E-----------------------------------------------------------||
B-----------------------------------------------------------||
G-----------------------------------------------------------|| end
D-----7-7\5-5-----6-6-----7-7-----7-7-7-7-------------------||
A/8-8---------7-7-----7-7-----7-7---------7-7-7-8-10-8-7-8--||
E-----------------------------------------------------------||
 .........................................................|
Добавлено: 22.04.2012
Другие материалы по этой песне:

Страница создана 18.03.2012
http://primanota.ru/luca-turilli/rider-of-the-astral-fire-chords.htm
Привет, Гость.
Предлагаем пройти революционный курс по гитаре.
Подарок от PrimaNota.Ru, забирай!