PrimaNota.ru - самый крупный в мире бесплатный архив песенных текстов, аккордов, табулатур и нот


Luca Turilli - Princess Aurora - текст песни, таба, видео

Регистрация Запомнить меня
Войти через:  Facebook Google Twitter Vk Yandex Mail.ru

Luca Turilli - Princess Aurora - текст песни, таба, видео

Печатать
Просмотров: 243
********************************************************************************** 
* LUCA TURILLI - PRINCESS AURORA ( From the album : KING OF THE NORDIC TWILIGHT) *      
**********************************************************************************
Words & Music By: Turilli

Transcribed By: Luthfi
I didn't tab this, I found it on another site and uploaded it here, credit goes to 
Luthfi for tabbing.

  Strings arranged to Guitar                              Verse 
E-14----14----14----14h15p14----14----14----14h15p14----|-----------------|
B----12----12----12----------12----12----12----------12-|-----------------|
G-------------------------------------------------------|--With-Piano-on--|
D-------------------------------------------------------|-----B-Minor-----|
A-------------------------------------------------------|-----------------|
E-------------------------------------------------------|-----------------|

  Chorus
E------------------------------------------2~---------|-----------------------|
B------------------------------------------2~---------|-----------------------|
G------------------------------------------3~--Muted--|--Verse-with-Piano-on--|
D-/4~---4~---2~-------2~--/4~----/6--6~----4~---------|-------B-Minor---------|
A-/2~--------0~---5~--2~--/2~----/4--4~----4~---------|-----------------------|
E-----------------3~--0~------------------/2~---------|-----------------------|

  Chorus
E------------------------------------------2~---------|
B------------------------------------------2~---------|
G------------------------------------------3~--Muted--| End With Piano !!!
D-/4~---4~---2~-------2~--/4~----/6--6~----4~---------| 
A-/2~--------0~---5~--2~--/2~----/4--4~----4~---------|
E-----------------3~--0~------------------/2~---------|

Добавлено: 23.03.2012
Другие материалы по этой песне:

Страница создана 29.02.2012
http://primanota.ru/luca-turilli/princess-aurora-chords.htm
Привет, Гость.
Предлагаем пройти революционный курс по гитаре.
Подарок от PrimaNota.Ru, забирай!