PrimaNota.ru - самый крупный в мире бесплатный архив песенных текстов, аккордов, табулатур и нот


Luca Turilli - Prince Of The Starlight - текст песни, таба, видео

Регистрация Запомнить меня
Войти через:  Facebook Google Twitter Vk Yandex Mail.ru

Luca Turilli - Prince Of The Starlight - текст песни, таба, видео

Печатать
Просмотров: 117
****************************************************************************************
* LUCA TURILLI - PRINCE OF THE STARLIGHT (From the Album: PROPHET OF THE LAST ECLIPSE) *
****************************************************************************************

Transcribed By: Niclas Buss
I didn't tab this, I found it on his site and uploaded it here.


 Normal Tuning!!
                   Riff 1A: (Guitar 1)
E-----------------------------------------------------------------------------------|
B---Orchestra----|------------------------------------------------------------------|
G----&-Synth-----|*--5p0-0-0-0-4p0-0-0-0/5-8-7-5--7p0-0-0-0-5p0-0-0-0/7-10-8-7--8p0-|
D-----Intro------|*-----------------------------------------------------------------|
A----(24-sec)----|------------------------------------------------------------------|
E-----------------------------------------------------------------------------------|

E-----------------------------------------------------------------------------------|
B-----------------------------------------------------------------------------------|
G-0-0-0-7p0-0-0-0/8-12-10-8-10~-8~----8---------5p0-0-0-0-4p0-0-0-0/5-8-7-5--7p0-0-0|
D----------------------------------12---12-9~---------------------------------------|
A-----------------------------------------------------------------------------------|
E-----------------------------------------------------------------------------------|

                                                              (end Riff 1A) x2   Rif
E-----------------------------------------------------------------------------------|
B------------------------------------------------------------------------------|----|
G0-5p0-0-0-0/7-10-8-7--8p0-0-0-0-7p0-0-0-0/8-12-10-8-10p0-12p0-13p0-16p0-/17~-*|--5\|
D-----------------------------------------------------------------------------*|--5\|
A------------------------------------------------------------------------------|--3\|
E-----------------------------------------------------------------------------------|

 f 1B (Guitar 2)
E-----------------------------------------------------------------------------------|
B-----------------------------------------------------------------------------------|
G\---------5\-----------------5\---------5\--------------5~---5---------------------|
D\---------5\----3~----0-1----5\---------5\--------------5~---5---------------------|
A\---------3\-------2~-----2~-3\---------3\---------/2~--3~---3-3-3-3-3-3-3-3-3-3-3-|
E------------------------------------------------3~---------------------------------|
                                                               pm...................

E-----------------------------------------------------------------------------------|
B-----------------------------------------------------------------------------------|
G-----------------------------------------------------------------------------------|
D------------------------------------------------------------------------------3~---|
A-3-3-3-3-3-3-3-3-3-3-3-3-3-3-3-3-3-3-3-3-3-3-3-3-3-3-3-3-3-3-3-3-3-3-3-3-3-3-----2~|
E-----------------------------------------------------------------------------------|
 ............................................................................|

E-----------------------------------------------------------------------------------|
B-----------------------------------------------------------------------------------|
G---------5-------------------------------------------------------------------------|
D-0-1-----5-------------------------------------------------------------------------|
A-----2~--3-3-3-3-3-3-3-3-3-3-3-3-3-3-3-3-3-3-3-3-3-3-3-3-3-3-3-3-3-3-3-3-3-3-3-3-3-|
E-----------------------------------------------------------------------------------|
           pm.......................................................................

                          (end Riff 1B)
E-----------------------------------------------------------------------------------|
B--------------------------6-\---------|--------------------------------------------|
G--------------------------5-\-4---5~--|--------------------------------------------|
D--------------------------3-\-4---5~--|----------------1~-3~---------------------1~|
A-3-3-3-3-3-3-3-3-3-3-3-3------2---3~--|--1~--0-1-3-4-1----------4~-1~--0-1-3-4-1---|
E-------------------------------------------------------------1~--------------------|
 ........................|                   pm........|               pm........|

                                                             (end Intro)   Verse 1
E-----------------------------------------------------------------------||----------|
B-----------------------------------------------------------------------||----------|
G-----------------------------------------------------------------------||----------|
D-3~----1-3-------------------------------3-2---3-2---------------------||--1-1-1-1/|
A-----4-----4----------1-2-1-4-1-3~--3--3-----3---------1-3~------------||----------|
E-------------4-6-4-6~------------------------------1-4------1-4-3-1~~--||----------|
     pm      pm....|  pm........|                                          pm.......

E-----------------------------------------------------------------------------------|
B-----------------------------------------------------------------------------------|
G-----------------------------------------------------------------------------------|
D-6-4-3/8-6-4/6-4-3--1-1-1-1/6-4-3/8-6-4/6-4-3--1-1-1-1/6-4-3/8-6-4/6-4-3--1-1-1-1/6|
A-----------------------------------------------------------------------------------|
E-----------------------------------------------------------------------------------|
 ...................................................................................

                             w/Fill 1
E-----------------------------------------------------------------------------------|
B-----------------------------------------------------------------------------------|
G-------------------4---------------------------------------------------------------|
D-4-3/8-6-4/6-4-3---4----6---------------/3---4---4---4---3-------------------------|
A-------------------2----6---6---6---6------4---4---4---4---4--6---6---6---6---\5---|
E------------------------4-----6---6---6-------------------------6---6---6---6----6-|
 ................|

E-----------------------------------------------------------------------------------|
B-----------------------------------------------------------------------------------|
G----------4------------------------------------------------------------------------|
D----A.H.--4----6-----T----T----T----T----T----T----T----T----T----T----T----T----T-|
A-5---5~---2----6----13p6-13p6-13p6-13p6/14p6-14p6-14p6-14p6/13p6-13p6-13p6-13p6/11p|
E---6-----------4-------------------------------------------------------------------|

E-----------------------------------------------------------------------------------|
B-----------------------------------------------------------------------------------|
G-----------------------------------------------------------------------------------|
D---T----T----T----T---T---T---T----T----T----T----T---T---T---T---T---T---T---T---T|
A6-11p6-11p6-11p6//9p6-9p6-9p6-9p6/11p6-11p6-11p6-11p6/9p6-9p6-9p6-9p6/8p6-8p6-8p6-8|
E-----------------------------------------------------------------------------------|

E-----------------------------------------------------------------------------------|
B-----------------------------------------------------------------------------------|
G-----------------------------------------------------------------------------------|
D-----T----T----T----T----T----T----T----T----T----T----T----T---T---T---T---T------|
Ap6--10p3-10p3-10p3-10p3/11p3-11p3-11p3-11p3/10p3-10p3-10p3-10p3/8p3-8p3-8p3-8p3/6p3|
E-----------------------------------------------------------------------------------|

                                                                                Brid
E-----------------------------------------------------------------------------------|
B-----------------------------------------------------------------------------|-----|
G-----------------------------------------------------------------------------|-----|
D-------------T---T---T---T-----------------------------------/3~---------5~--|--3--|
A-6p3-6p3-6p3/8p3-8p3-8p3-8p3-6p3-6p3-6p3-6p3-5p3-5p3-5p3-5p3-----6p5--3--5~--|--3--|
E-------------------------------------------------------------------------3~-----1--|

 ge
E-----------------------------------------------------------------------------------|
B-----------------------------------------------------------------------------------|
G-----------------------5---------------------------------------------------5-\-3-/-|
D--5--------------------5----3--------------------3----5--------------------5-\-3-/-|
A--5---3-3-3-3-3-3-3-3--3----3---1-1-1-1-1-1-1-1--3----5---3-3-3-3-3-3-3-3--3-\-1-/-|
E--3-------------------------1--------------------1----3----------------------------|
      pm..............|         pm..............|         pm..............|

                              Chorus
E-----------------------------------------------------------------------------------|
B--------------------------|-----------------------------------------------4--------|
G-5------------------------|---------8--------------5---------3~-------5-----5---5--|
D-5--------3-5-3-----------|---------8----8----3----5----3----3~---------5-----5----|
A-3--3-5-6-------6-5-3\----|--3~-5~--6----8----3----3----3----5~---3-6--------------|
E-----------------------\-----------------6----1---------1--------------------------|
    pm................|

E---------3--------------------------------------------------------------3----------|
B-----------4--------------------------------------------4-----------------4---4----|
G-----5-------5----/8--------------5---------3~------5-----5---5-----5-------5------|
D-------5-------5--/8----8----3----5----3----3~--------5-----5---------5------------|
A-3-6--------------/6----8----3----3----3----5~--3-6-------------3-6--------------\2|
E------------------------6----1---------1-------------------------------------------|

E-----------------------------------------------------------------------------------|
B----------------------|--------------------|-------------|------------|------------|
G-----4h5h7-------4~---|---Riff-1A--&--1B---|---Verse-2---|---Bridge---|---Chorus---|
D-----------5p3h5------|-------(x2)---(x1)--|-------------|------------|------------|
Ah3h5------------------|--------------------|-------------|------------|------------|
E-----------------------------------------------------------------------------------|

  Guitar Solo
E------------------------13--13-----------------------------------------------------|
B--13~-15-15b(16)r15-13---.------15-------13~--15-15b(16)r15-13----------------13~--|
G*-----------------------------------15~------------------------\13--17--15~--------|
D*----------------------------------------------------------------------------------|
A-----------------------------------------------------------------------------------|
E-----------------------------------------------------------------------------------|

E-------------------13--13-----------8p5---------------5h8-/13p8---------10p7-------|
B-15-15b(16)r15-13---.------15-----------6-----------6-----------10-----------8-----|
G-------------------------------15~--------5-------5----------------10~---------7---|
D--------------------------------------------7---7--------------------------------9-|
A----------------------------------------------8------------------------------------|
E-----------------------------------------------------------------------------------|

                             x2                   Guitar Solo 2 (at 4:18)
E----------7h10-/15p10------------(/11~~-)--------------------------------12--12----|
B--------8-------------12-------|---Orchestra---|--12~--14-14b(15)r14-12---.------14|
G------7------------------12~--*|-------&-------|-----------------------------------|
D----9-------------------------*|----Vocals-----|-----------------------------------|
A-10----------------------------|---------------|-----------------------------------|
E-----------------------------------------------------------------------------------|

E-----------------------------------------------------------------12--12------------|
B-------12~-14-14b(15)r14-12---------------12~--14-14b(15)r14-12---.------14--------|
G--14~-----------------------\12--16--14~-------------------------------------14~---|
D-----------------------------------------------------------------------------------|
A-----------------------------------------------------------------------------------|
E-----------------------------------------------------------------------------------|

E-7p4---------------4h7-/12p7--------9p6---------------6h9-/14p9--------------------|
B-----5-----------5-----------9----------7-----------7-----------11------/-13~-15-15|
G-------4-------4---------------9~---------6-------6----------------11~-------------|
D---------6---6------------------------------8---8----------------------------------|
A-----------7----------------------------------9------------------------------------|
E-----------------------------------------------------------------------------------|

E-------------13--13----------------------------------------------------------------|
Bb(16)r15-13---.------15-------13~-15-15b(16)r15-13---------------/13~-15-15b(16)r15|
G-------------------------15~-----------------------\13--17--15~--------------------|
D-----------------------------------------------------------------------------------|
A-----------------------------------------------------------------------------------|
E-----------------------------------------------------------------------------------|

E-----13--13------------8p5---------------5h8-/13p8---------10p7----------------7h10|
B-13---.------15------------6-----------6-----------10-----------8------------8-----|
G-----------------15~---------5-------5----------------10~---------7--------7-------|
D-------------------------------7---7--------------------------------9----9---------|
A---------------------------------8------------------------------------10-----------|
E-----------------------------------------------------------------------------------|

                                     Guitar 1:
E-/15p10----------------------------------------------------------------------------|
B--------12-----------|------------|------------------------------------------------|
G-----------12~-\-----|---Chorus---|--5p0-0-0-0-4p0-0-0-0/5-8-7-5-/10p0-12p0-13p0-16|
D-----------------\---|------------|-*10\-------------------------------------------|
A---------------------|------------|-*10\-------------------------------------------|
E-------------------------------------*8\-------------------------------------------|

  *=Guitar 2
E----------------------------------------||
B----------------------------------------||
Gp0-\10p0-12p0-13p0-16p0---/-17~~~-\-----|| end
D---------------------------*10\-----\---||
A---------------------------*10\---------||
E----------------------------*8\---------||


----------------------------------------------------------------------------------


  Fill 1 (Two Guitars)
E---------------------------------------------------------------------/-10----------|
B---------------------------------------------------------------------/-11-11----11-|
G--11p8---8-11p8-/13p8-15p11----11-15p11-\-13p10--11p8---8-11p8-10h11------10-10-10-|
D--13p8-8-8-13p8-/15p8-16p11-11-11-16p11-\-15p10--13p8-8-8-13p8-11h13---------12----|
A-------9--------------------13------------------------9----------------------------|
E-----------------------------------------------------------------------------------|

E--------||
B--------||
GA.H.----|| end
D-12~~---||
A-13~~---||
E-~------||

  Rhythm Guitar during Guitar Solo                                 x2
E---------------------------------------------------------------------||
B---------------------------------------------------------------------||
G*--5---/-10---------5----/-10----------5---/-10---------------------*|| end
D*--5---/-10-\--8~---5----/-10-\--8~----5---/-10-\--8~----3~--/--5~--*||
A---3---/--8-\--5~---3----/--8-\--5~----3---/--8-\--5~----3~--/--5~---||
E------------\--6~-------------\--6~-------------\--6~----5~--/--7~---||

  Rhythm Guitar during Guitar Solo 2
E-----------------------------------------------------------------------------------|
B-----------------------------------------------------------------------------------|
G---4---/-9--------4---/-9--------4---/-9--------------------/5----/10---------5---/|
D---4---/-9-\-7~---4---/-9-\-7~---4---/-9-\-7~---2~--/--4~---/5----/10-\--8~---5---/|
A---2---/-7-\-4~---2---/-7-\-4~---2---/-7-\-4~---2~--/--4~---/3----/-8-\--5~---3---/|
E-----------\-5~-----------\-5~-----------\-5~---4~--/--6~-------------\--6~--------|

E-----------------------------------------||
B-----------------------------------------||
G10---------5---/-10----------------------|| end
D10-\--8~---5---/-10-\--8~----3~--/--5~---||
A-8-\--5~---3---/--8-\--5~----3~--/--5~---||
E---\--6~------------\--6~----5~--/--7~---||

Добавлено: 29.03.2012
Другие материалы по этой песне:

Страница создана 29.03.2012
http://primanota.ru/luca-turilli/prince-of-the-starlight-chords.htm
Привет, Гость.
Предлагаем пройти революционный курс по гитаре.
Подарок от PrimaNota.Ru, забирай!