PrimaNota.ru - самый крупный в мире бесплатный архив песенных текстов, аккордов, табулатур и нот


Luca Turilli - Knight Of Immortal Fire - аккорды и текст, таба, видео

Регистрация Запомнить меня
Войти через:  Facebook Google Twitter Vk Yandex Mail.ru

Luca Turilli - Knight Of Immortal Fire - аккорды и текст, таба, видео

Печатать
Просмотров: 131
Knight Of Immortal Fire
Luca Turilli
  Music and Words By: Luca Turilli
 
Transcribed By: Niclas Buss
Date tabbed: 4.1, 28.5.2000
email: Nbjbuss@hotmail.com

Please mail me if you can find mistakes!

-----------------------------------------

Normal Tuning

  Intro (Gtr.1)
E----------------------------------------------------------------------------------|
B----------------------------------------------------------------------------------|
G--7--7-7-7-9-10--9-7--12-10-9--10-----7--7-7-7-9-10--9-7-------------------------|
D----------------------------------7----------------------8--10--7--8-7-----------|
A-----------------------------------------------------------------------10--10-10-1|
E----------------------------------------------------------------------------------|
				  ________________ _________________________
				 |1.2.	          |3.4.			    |
E--------------------------------|----------------|-------------------------|------|
B--------------------------------|----------------|-------------------------|------|
G--------------------------------|---------------|------------------------|------|
D---7-8--7----------------7------|--------7------|------------------------|--0-0-|
A---------10-8--8-8-8-10---10-8-|--8--7--5--x---|--5--5-5-5-7-8-7-5-4-5--|------|
E--------------------------------|--6--5----------|-------------------------|------|

						 Intro (Gtr.2)
E---------------------------------------------||-----------------------------------|
B---------------------------------------------||-----------------------------------|
G---------------------------------------------||-------7------------7-----------|
D-2-5-3-2--0-0-0--2-5-3-2--7-----7-----5--5~--||--7---5--7---7---5--7---8--|
A--------------------------5--7--5--7--3--3~--||---5-------5---5-------5---6--|
E-----------------------------5-----5---------||-----------------------------------|

	         x2
E----------------------------------------------------------------------------------|
B-------------------|---------|------6-----6-----6---------------------------------|
G------------------|---------|-----7--7--7-----7--7------------------------------|
D-7--------7------|---------|--7-----5-----7-----5--7--/8--8--7--7-----------7--|
A-5--8--7--5--x---|--x-x-x--|---5-----------5--------5--/6--6--5--5---8---7---5--|
E-----6--5--------------------------------------------------------------6---5------|
  _____________ __________________________________________________________
 |1.           |2.							  | Verse 1
E--------------|----------------------------------------------------------||-------|
B--------------|----------------------------------------------------------||-------|
G-------------|----------------------------------------------------------||------|
D--7p5--------|-------------------------------------7-----7-----5---5~---||-7----|
A------8p7p5---|--5-5-/7-10-8-7------------7-10-8-7--5--7--5--7--3---3~---||----5-5|
E--------------|----------------10--10-10---------------5-----5-----------||-------|
									       pm..|
 (Verse Riff)
E----------------------------------------------------------------------------------|
B----------------------------------------------------------------------------------|
G----------------------------------------------------------------------------------|
D-5-----7---8-----7-----5---------7--------7---7-----5-----7---8-----7-----5-------|
A---5-5---5---5-5---5-5----7----7----8--7--4-----5-5---5-5---5---5-5---5-5-----7---|
E--------------------------5--5------6--5--------------------------------------5--5|
   pm..| pm  pm..| pm..|     pm....|            pm..| pm..| pm  pm..| pm..|      pm

						     (end Verse riff) x2   Riff 1
E---------------------------------3--------------1---------------3-----------------|
B------------------------------3----3---------1----1----------3----3-----|---------|
G--------------------7-------3--------3-----2--------2------3--------3--|---------|
D---7--------7--/7-----7---------------------------------5--------------|------5--|
A-7----8--7--4--/5--------5--------------3---------------3---------------|--3---3--|
E------6--5---------------3--------------1----------------------------------1------|
 ....|
							      end Riff 1   w/Riff 2
E----------------------------------------------------------------------------------|
B------------------------------------------------------------------------|---------|
G------------------------------------------------------------------------|-7--7-7-|
D------7-------5---3--------1h3h5-------5-------7-------5---7-7-7-7-7-7--|--------|
A--5---5---3---3---1--1-3h5---------3---3---5---5---3---3---5-5-5-5-5-5--|---------|
E--3-------1------------------------1-------3-------1------------------------------|

E----------------------------------------------------------------------------------|
B----------------------------------------------------------------------------------|
G-7-9-10-9-7-/12-10-9-10----7--7-7-7--9-10-9-7-------------------------------------|
D------------------------7---------------------8-10-7--8-7--------------7-8--7-----|
A----------------------------------------------------------10--10-10-10--------10-|
E----------------------------------------------------------------------------------|
		       ______________ _____________________________________________
		      |1.	     |2.
E---------------------|--------------|---------------------------------------------|
B---------------------|--------------|---------------------------------------------|
G---------------------|-------------|---------------------------------------------|
D-------------7-------|--------7---|---------------------------------------------|
A-8--8-8-8-10---10-8--|--8--7--5----|--5--5-5-5-7-8-7-5-4-5-5-5-/7-10-8-7--------|
E---------------------|--6--5--------|--------------------------------------10-10-1|

 ___________________________________
				    |				            Chorus
E-----------------------------------||---------------------------------------------|
B-----------------------------------||-----------------|----------|-------|--------|
G-----------------------------------||-----Verse-3-----|--Riff-1--|-------|--------|
D-------------7-----7--------2-5~---||--(with-verse)---|----------|--7---|--10---8|
A---7-10-8-7--5--7--5--7--3~--------||---(riff-once)---|----------|--5---|---8---6|
E-0--------------5-----5------------||---------------------------------------------|

E----------------------------------------------------------------------------------|
B---------------------------------------------------------------|------------------|
G---------------------------------------------------------------|------------------|
D--6---7-----------5----------/10---8---6---7-----------7---9---|--7-----5--------7|
A--4---5---8---3---3--3-3-3---/-8---6---4---5---8---8---5---7---|--5--8--3--3--8--5|
E----------6---1--------------------------------6---7-----------------6-----1--6---|

E----------------------------------------------------------------------------------|
B----------------------------------------------------------------------------------|
G----------------------------------------------------------------------------------|
D-----7----7-----5-----------7-7-7------7------------5--------------------7--------|
A--7--5----5--8--3--3--8--7--7-4-5--5-5-5-----8--3-3-3------3------8--5-5-5------7-|
E--5----------6-----1--6--5---------------6-6-6---------1-1-1--6-6-6---------5-5-5-|
 				  pm..| pm..|  pm..| pm...|  pm..|  pm..|  pm..|

							      Bridge
E----------------------------------------------------------------------------------|
B-----------------------------------------------------------|----------------------|
G-----------------------------------------------------------|---------------------|
D-----7-------7------------5------------------------/7-7-7--|---------------------|
A-5-5-5---5-5-5-----8--3-3-3------3-------8------7--/7-4-5--|---5------------------|
E---------------6-6-6---------1-1-1---6-6-6--5-5-5--------------3--3-3-3-3-3-3-3-3-|
 pm..|   pm..| pm..|  pm..|  pm..|   pm..|  pm..|		  pm...............

E----------------------------------------------------------------------------------|
B----------------------------------------------------------------------------------|
G----------------------------------------------------------------------------------|
D-----------------------------------------/7---------------------------------------|
A-----------------------------------------/5--5-5-5-5-5-5-5-5-5-5-5-5-5-5-5-5-5-5-5|
E-3-3-3-3-3-3-3-3-3-3-3-3-3-3-3-3-3-3-3-3------------------------------------------|
 ........................................|   pm....................................

E----------------------------------------------------------------------------------|
B----------------------------------------------------------------------------------|
G----------------------------------------------------------------------------------|
D-------------------------------------------------------------------/7-------------|
A-5-5-5-5-5-5-4----------------------------------------------------/5--5-5-5-5-5-5|
E-------------5--5-5-5-5-5-5-5-5-5-5-5-5-5-5-5-5-5-5-5-5-5-5-5-5-5----------------|
 ............|   pm................................................|   pm..........

		      ___________________ ___________________
		     |1.	         |2.	             |  Interlude
E--------------------|-------------------|-------------------||--/12~--10-10--9-9-/|
B--------------------|-------------------|-------------------||--------------------|
G--------------------|------------------|-------------------||--------------------|
D--------------------|------------------|-------------------||--------------------|
A-5-5-5-5-5-5-5-5-5--|-5-5-3-1-----------|--5~--3~--1--------||--------------------|
E--------------------|---------5-3-1-0---|------------5-3-1--||--------------------|
 ..................|

E-10-10---10-10---------------------------------------12-12---------/12-13--15-13--|
B----------------10-10--9-9-/10-10---11-11--10-10--------10-10-----------------|
G----------------------------------------------------------------------------------|
D----------------------------------------------------------------------------------|
A----------------------------------------------------------------------------------|
E----------------------------------------------------------------------------------|

E-12-13--12-10---12-12-10-10-9-9-/10-10--10-10----------------------------------/|
B------------------------------------------------10-10-9-9-/10-10--11-11-10-10--|
G----------------------------------------------------------------------------------|
D----------------------------------------------------------------------------------|
A----------------------------------------------------------------------------------|
E----------------------------------------------------------------------------------|

					       Guitar Solo (Gtr.1)	
E-12-12---------/12-13-12-12-10-10--10-10----------------------------------------|
B-------10-10-------------------------------|-------------------------------8b(10)|
G--------------------------------------------|--12p7-----------7-----------7-------|
D--------------------------------------------|-------8p7h8p7h8---8p7h8p7h8---------|
A--------------------------------------------|-------------------------------------|
E----------------------------------------------------------------------------------|

E----------------------------------------------------------------------------------|
B~---r8-------/11-11-11-10h11p10p8h10~---------------------------------------------|
G-------7-----------------------------------------------------------------9h10p9p7-|
D---------8-7--------------------------8-8-8-7----7h8p7p5-7h8p7p5h7h8/10----------|
A-----------------------------------------------10---------------------------------|
E----------------------------------------------------------------------------------|

E-----------------------------------------13-17p15---------------------------------|
B---------------8h10h11p10-11p10p8-----15----------17-17b(18)~--r17h18p1715-15~~--|
G-9h10p9p7h9h10--------------------/14---------------------------------------------|
D----------------------------------------------------------------------------------|
A----------------------------------------------------------------------------------|
E----------------------------------------------------------------------------------|

							  T
E-------------10h15p10-------/18p15----------------15h18h22p18p15--------/22-22-22-|
B----------11----------11-----------15----------15----------------15---------------|
G---12--12----------------12-----------15----15----------------------15------------|
D-----------------------------------------17---------------------------------------|
A----------------------------------------------------------------------------------|
E----------------------------------------------------------------------------------|

E-20-18-17-17-17-15--------------------------------------12-----------------------|
B--------------------18--17b(18)~--r17------17-15-14-14-----14-15~--14-15-15--15~|
G--------------------------------------18------------------------------------------|
D----------------------------------------------------------------------------------|
A----------------------------------------------------------------------------------|
E----------------------------------------------------------------------------------|

         Guitar Solo (Gtr.2)
E--------------------------------------------17b(18)--r17~~---17b(18)~--r17~~------|
B--15-|--18~---20b(22)--r20~-~-18~~---17~----------------------------------------|
G------|---------------------------------------------------------------------------|
D------|---------------------------------------------------------------------------|
A------|---------------------------------------------------------------------------|
E----------------------------------------------------------------------------------|

E------------------------/22-22-22-20-18-17-17-17-15------------------------13h15-|
B--11~~-13~~-15~~-13-11-------------------------------18--18~--14~--14h15h17-------|
G--12~--14~--15~--14-12------------------------------------------------------------|
D----------------------------------------------------------------------------------|
A----------------------------------------------------------------------------------|
E----------------------------------------------------------------------------------|

						    Chorus (2)
E-12------------12----/22~--21-22-22--22~--22------------------------------------|
B----15-14-14-----14-----------------------------|--------------------------------|
G-------------------------------------------------|--------------------------------|
D-------------------------------------------------|--10---8---6---7-----------5----|
A-------------------------------------------------|---8---6---4---5---8---3---3--3-|
E---------------------------------------------------------------------6---1--------|

E----------------------------------------------------------------------------------|
B----------------------------------------------------------------------------------|
G----------------------------------------------------------------------------------|
D----------2~-/-10---8---6---7----------------7------7-------9------9--------------|
A-3-3--5~-----/--8---6---4---5---8---8---/5-5-5--5-5-5--/7-7-7--7-7-7------5------5|
E--------------------------------6---7--------------------------------3-3-3--3-3-3|
					pm...|  pm..|  pm...|  pm..| pm...|  pm..|

		    Bridge (2)
E----------------------------------------------------------------------------------|
B-----------------|----------------------------------------------------------------|
G-----------------|---------------------------------------------------------------|
D------2------2---|---------------------------------------------/7----------------|
A--0-0-0--0-0-0---|---5------------------------------------------/5--5-5-5-5-5-5-5-|
E---------------------3--3-3-3-3-3-3-3-3-3-3-3-3-3-3-3-3-3-3-3-3-------------------|
  pm..|  pm..|		pm......................................|   pm.............
									 __________
									|1.
E-----------------------------------------------------------------------|----------|
B-----------------------------------------------------------------------|----------|
G-----------------------------------------------------------------------|----------|
D---------------------------------------------------------------------/-|-7--------|
A-5-5-5-5-5-5-5-5-5-5-5-5-5-4----------------------------------------/-|-5--5-5-5-|
E---------------------------5--5-5-5-5-5-5-5-5-5-5-5-5-5-5-5-5-5-5-5---|----------|
 ..........................|   pm....................................|      pm.....
 _____________________________________ ____________________________________________
 				      |2.
E-------------------------------------|--------------------------------------------|
B-------------------------------------|--------------------------------------------|
G------------------------------------|---------------------------------/7-5-------|
D------------------------------------|------7------7------7------7----------8-7h8p|
A-5-5-5-5-5-5-5-5-5-5-5-5-5-5-5-5-5---|--5-5-5--5-5-5--5-5-5--5-5-5---5------------|
E-------------------------------------|--------------------------------------------|
 ..................................|    pm..|  pm..|  pm..|  pm..|   pm
 _____________
 	      |
E-------------||
B-------------||
G-------------|| end
D7p5----------||
A----8-7-5---||
E-------------||

--------------------------------------------------------------------------------------


  Riff 2
E----------------------------------------------------------------------------------|
B---------------------------------------------------------6-----6------6-----6-----|
G------7------------7-----------------------------------7--7--7------7--7--7-----|
D--7--5--7----7--5--7---8---7--------7~-------7-----5------7-----5-----/8-|
A--5------5----5------5---6---5--8--7--5~------5------------5-----------/6-|
E--------------------------------------6--5---------------------------------------|

E--------------------------------------------------------------------------||
B--------------------------------------------------------------------------||
G--------------------------------------------------------------------------|| end
D-8--7--7--------------------------------------------7----7-----5~--5~---||
A-6--5--5---8--7-----------7-10-8-7--------7-10-8-7--5-7-5-7--3~--3~---||
E-----------6--5---/10--10----------10--10--------------5----5-----------||

  Rhythm Guitar during Guitar Solo
E----------------------------------------------------------------------------------|
B----------------------------------------------------------------------------------|
G---------------------------------------------------------------------------------|
D---------------------------------------------/7----------------------------------|
A---5------------------------------------------/5--5-5-5-5-5-5-5-5-5-5-5-5-5-5-5-5-|
E---3--3-3-3-3-3-3-3-3-3-3-3-3-3-3-3-3-3-3-3-3-------------------------------------|
      pm......................................|   pm...............................
						       ____________________________
						      |1.
E-----------------------------------------------------|----------------------------|
B-----------------------------------------------------|----------------------------|
G-----------------------------------------------------|----------------------------|
D-----------------------------------------------------|-/7-------------------------|
A-5-5-5-5-4------------------------------------------|-/5-5-5-5-5-5-5-5-5-5-5-5-5-|
E---------5--5-5-5-5-5-5-5-5-5-5-5-5-5-5-5-5-5-5-5-5-|----------------------------|
 ........|  pm.......................................|    pm.......................
 ___________________ _________________________________________________
           |2. 					      |
E-------------------|-------------------------------------------------||
B-------------------|-------------------------------------------------||
G------------------|-------------------------------------------------|| end
D------------------|-/7---------------------------------7--7~--7---||
A-5-5-5-5-5-5-5-5---|-/5-5-5-5-5-5-5-5-5-5-5-5-5-5-5-5-5-5--5~--5---||
E-------------------|-------------------------------------------------||
 ................|      pm..............................|

--------------------------------------------------------------------------------------

=======================
=TABLATURE EXPLANATION=
=======================

A.H. = Artificial Harmonic

pm..| = Palm mute

h = hammer on

p = pull off

/ = slide up

 = slide down

~ = Vibrato

b() = Bend

x = Pick Slide

--------
--------
---12--- = Tremolo pick
----/---
----/---
----/---

---.---
--12--- = Staccato
-------
-------
-------

|     |
|     |
|   | = repeat from  to 
|   | 
|     |
Добавлено: 12.09.2013
Другие материалы по этой песне:
  • Аккорды и текст

Страница создана 30.06.2012
http://primanota.ru/luca-turilli/knight-of-immortal-fire-chords.htm
Привет, Гость.
Предлагаем пройти революционный курс по гитаре.
Подарок от PrimaNota.Ru, забирай!