PrimaNota.ru - самый крупный в мире бесплатный архив песенных текстов, аккордов, табулатур и нот


Luca Turilli - Demonheart - текст песни, таба, видео

Регистрация Запомнить меня
Войти через:  Facebook Google Twitter Vk Yandex Mail.ru

Luca Turilli - Demonheart - текст песни, таба, видео

Печатать
Просмотров: 176
***************************************************************************
* LUCA TURILLI - DEMONHEART (From the Album: PROPHET OF THE LAST ECLIPSE) *
***************************************************************************

Thanks go to Nicholas Buss for making this tab,I found it on his website and uploaded it here.

Transcribed By: Niclas Buss


 Normal Tuning!!

E-----------------------------------------------------------------------------------|
B---------------|-------------------------------------------------------------------|
G--Synth-Intro--|-----------------6-6\---6-6\----6-/9-------------------------------|
D---(20-sec)----|--6-6\---6-6\----6-6\---6-6\----6-/9-------------------------------|
A---------------|--6-6\---6-6\----4-4\---4-4\----4-/7-7-7-7-7-7-7-7-7-7-7-7-7-7-7-7-|
E------------------4-4\---4-4\----4-4\---4-4\---------------------------------------|
                                                     pm.............................

E-----------------------------------------------------------------------------------|
B-----------------------------------------------------------------------------------|
G-----------------------------------/6----------------------------------------------|
D-----------------------------------/6----------------------------------------------|
A-7---------------------------------/4-4-4-4-4-4-4-4-4-4-4-4-4-4-4-4----------------|
E--\7-7-7-7-7-7-7-7-7-7-7-7-7-7-7-7----------------------------------\4-4-4-4-4-4-4-|
 ..................................|  pm............................................

E-----------------------------------------------------------------------------------|
B-----------------------------------------------------------------------------------|
G--------------------/9-------------------------------------------------------------|
D--------------------/9-------------------------------------------------------------|
A--------------------/7-7-7-7-7-7-7-7-7-7-7-7-7-7-7-7-------------------------------|
E-4-4-4-4-4-4-4-4-4----------------------------------\7-7-7-7-7-7-7-7-7-7-7-7-7-7-7-|
 ..................|   pm...........................................................

                                                                   Riff 1
E-----------------------------------------------------------------------------------|
B----------------------------------------------------------------|------------------|
G------------------3---------------------------------------------|*--8----------8---|
D---\-4------------4--------------6~~----------------------------|*--6-6-6-6-6--6-6-|
A---\-4------------1-1-1-1-1-1-1--6~~--------------2----A.H.-----|------------------|
E-7-\-2-2-2-2-2-2-----------------4~~----4-4-5-5-4---4-5-4~~--\---------------------|
 ..|   pm........|  pm..........|                                     pm......|  pm.

E-----------------------------------------------------------------------------------|
B-----------------------------------------------------------------------------------|
G--------9----------6---------A.H.---------8----------8----------9----------6-------|
D-6-6-6--6-6-6-6-6--6-6-6-6-6--7~----------6-6-6-6-6--6-6-6-6-6--6-6-6-6-6--6-6-6-6-|
A---------------------------------4-h6----------------------------------------------|
E--------------------------------------4~-------------------------------------------|
 ......|  pm......|  pm......|              pm......|  pm......|  pm......|  pm.....

      (end Riff 1 & Intro) x2    Verse 1
E-----------------------------||----------------------------------------------------|
B-----------------------------||----------------------------------------------------|
G----------------------------*||*---------------------------------------------------|
D-6--------------------------*||*---------------------------------------------------|
A----7p6p4------------A.H.----||----------------------------------------------------|
E----------7p6p4h6h7h6p4~~-\--||----4--4-4-4--4-4-4--4-4-4--4-4-4--4-4-4--4-4-4--4-4|
 ..|                               pm...............................................

                    x4   Bridge
E-----------------------------------------------------------------------------------|
B----------------------|------------------------------------------------------------|
G---------/6~----3~---*|------------------------------------------------------------|
D---------/6~----4~---*|---6----------6----------6----------6----------7---------6--|
A---------/4~----1~----|---6----------6----------7----------4------------4-h6----6--|
E-4--4-4--/4~--------------4-4-4-4-4--4-4-4-4-4--4-4-4-4-4--4-4-4-4-4---------4--4-4|
 .......|                   pm......|  pm......|  pm.......| pm......|            pm

E-----------------------------------------------------------------------------------|
B-----------------------------------------------------------------------------------|
G-----------------------------------------------------------------------------------|
D--------6----------6----------6-------------------------------6----------6---------|
A--------6----------7----------4---------7p6p4-----------------6----------6---------|
E-4-4-4--4-4-4-4-4--4-4-4-4-4--4-4-4-4-4-------7p6p4h6h7p6p4~--4-4-4-4-4--4-4-4-4-4-|
 ......|  pm......|  pm......|  pm......|                       pm......|  pm......|

E-----------------------------------------------------------------------------------|
B-----------------------------------------------------------------------------------|
G-----------------------------------------------------------------------------------|
D-6----------6----------7---------6----------6----------6----------6----------------|
A-7----------4------------4-h6----6----------6----------7----------4---------7p6p4--|
E-4-4-4-4-4--4-4-4-4-4---------4--4-4-4-4-4--4-4-4-4-4--4-4-4-4-4--4-4-4-4-4-------7|
   pm......|  pm......|            pm......|  pm......|  pm......|  pm......|

E-----------------------------------------------------------------------------------|
B-----------------------------------------------------------------------------------|
G-----------------------------------------------------------------------------------|
D---------------------------------------------------------------------------------7~|
A---------------------------------------------------------------------------------7~|
Ep6p4h6h7p6p4~--4-4-7-7-6-6\3-3/4-4-7-7-6-6\3-3/4-4-7-7-6-6\3-3/4-4-7-7-6-6\4-4~--5~|
               pm..............................................|

E-----------------------------------------------------------------------------------|
B-----------------------------------------------------------------------------------|
G-----------------------------------------------------------------------------------|
D---------------------------------------------------7~------------------------------|
A---------------------------------------------------7~------------------------------|
E--4-4-4-4-4-4-4-4-4-4-4-4-4-4-4-4-4-4-4-4-4-4-4-4--5~--4-4-4-4-4-4-4-4-4-4-4-4-4-4-|
  pm..............................................|    pm...........................

               Chorus
E-----------------------------------------------------------------------------------|
B------------|----------------------------------------------------------------------|
G------------|------------------6-6\---6-6\---6-/-9---------------------------------|
D------------|--6-6\----6-6\----6-6\---6-6\---6-/-9---------------------------------|
A------------|--6-6\----6-6\----4-4\---4-4\---4-/-7-7-7-7-7-7-7-7-7-7-7-7-7-7-7-7-7-|
E-4-4-4-4-4-----4-4\----4-4\----4-4\---4-4\-----------------------------------------|
 ..........|                                       pm...............................

E-----------------------------------------------------------------------------------|
B-----------------------------------------------------------------------------------|
G-----------------------------------/6----------------------------------------------|
D-----------------------------------/6----------------------------------------------|
A-----------------------------------/4-4-4-4-4-4-4-4-4-4-4-4-4-4-4-4----------------|
E-\7-7-7-7-7-7-7-7-7-7-7-7-7-7-7-7-----------------------------------\4-4-4-4-4-4-4-|
 .................................|   pm............................................

E-----------------------------------------------------------------------------------|
B-----------------------------------------------------------------------------------|
G--------------------/-9------------------------------------------------------------|
D--------------------/-9------------------------------------------------------------|
A--------------------/-7-7-7-7-7-7-7-7-7-7-7-7-7-7-7-7------------------------------|
E-4-4-4-4-4-4-4-4-4------------------------------------\7-7-7-7-7-7-7-7-7-7-7-7-7-7-|
 ..................|    pm..........................................................

E-----------------------------------------------------------------------------------|
B----------------------------------------------------------|------------|-----------|
G------------------3---------------------------------------|---Riff-1---|---Verse-2-|
D---\-4------------4------------6~-------------------------|------------|-----------|
A---\-4------------1-1-1-1-1-1--6~------------2----A.H.----|------------|-----------|
E-7-\-2-2-2-2-2-2---------------4~--4-4-5-5-4---4-5-4~--\---------------------------|
 ..|   pm........|  pm........|

                               Interlude
E-----------------------------------------------------------------------------------|
B--|------------|------------|------------------------------------------------------|
G--|---Bridge---|---Chorus---|---------6~-------------------------------------------|
D--|------------|------------|---6~----6~--6~---4-/-8~---------------6-5-8-6-5------|
A--|------------|------------|---6~----4~--6~---4-/-9~---------4-6-7-----------7-6-4|
E--------------------------------4~--------4~---2-/-6~---4-6-7----------------------|
                                                        pm..........................

E-----------------------------------------------------------------------------------|
B-----------------------------------------------------------------------------------|
G-----------------------------------------------------------------------------------|
D-----------------------------------------------------------------------------------|
A--------------------------------------4-4-4-4-4-4-4-4------------------------------|
E-7-6\4-4-4-4-4-4-4-4-4-4-4-4-4-4-4-4-------------------\4-4-4-4-4-4-4-4-4-4-4-4-\2-|
 ...................................................................................

                                                            Guitar Solo 1
E---------------------------------------------------------|-Guitar-1:---------7h11p7|
B---------------------------------------------------------|-----------------9-------|
G---------------------------------------------------------|---------------8---------|
D----------------------------6-5-8-6-5---6-5--------------|-------------9-----------|
A----------------------4-6-7-----------7-----7-6-4--------|-------6-h11-------------|
E-2-2-2/6-6-6-6--4-6-7-----------------------------7-6\3~-|--4-h7-------------------|
 .....................................................|   | Guitar 2:               |
                                                         E|-------------------------|
                                                         B|--16~~-------------------|
                                                         G|-------------------------|
                                                         D|-------------------------|
                                                         A|-------------------------|
                                                         E|-------------------------|

E---------------------------16p12--------------6h9p6---------------------7h11p7-----|
B-9-------------------------------14---------7-------7-----------------9--------9---|
G---8--------------------------------13----6-----------6-------------8------------8-|
D-----9-----------------11--------------\8-------------------------9----------------|
A-------11p6---------11---------------------------------------6h11------------------|
E------------7-/9h12--------------------------------------4h7-----------------------|

E-----------------------------------------------------------------------------------|
B----17~--16~--17~~---------------------17b(19)~~---r-17--16~~----------------------|
G-----------------------------------------------------------------------------------|
D-----------------------------------------------------------------------------------|
A-----------------------------------------------------------------------------------|
E-----------------------------------------------------------------------------------|

                                                                  Guitar Solo 2A
E-----------------------16p12-----------------14-/21p18----18~--|--7p4---/11p7---12-|
B-----------------------------14-----------14-----------19------|------4-------9----|
G--------------------------------13-----15----------------------|*------------------|
D-9-----------------11--------------\16-------------------------|*------------------|
A---11p6---------11---------------------------------------------|-------------------|
E--------7-/9h12------------------------------------------------|-------------------|
                                                                |
E---------------------------------------------------------------||
B-17~-16~--14~~-------------------12-11~~---------------12-11~--||
G---------------------------------------------------------------|| end
D---------------------------------------------------------------||
A---------------------------------------------------------------||
E---------------------------------------------------------------||

E-11--7p4---/11p7---/12-7--12p0-0-0-0-11p0-0-0-0-9p0-0-0-0-7p0-0-0-0-9p0-0-0-0-7p0-0|
B---------4-------9-----------------------------------------------------------------|
G-----------------------------------------------------------------------------------|
D-----------------------------------------------------------------------------------|
A-----------------------------------------------------------------------------------|
E-----------------------------------------------------------------------------------|

               x2  Guitar Solo 2B (with Guitar Solo 2A riff)
E-0-0-/6-7-6---------------/7p4----9-4---------/7p4----9-4-/9p0-0-0-0-7p0-0-0-0-6p0-|
B------------8~--|---9p4--------4-------9p4---------4-------------------------------|
G---------------*|*------4------------------4---------------------------------------|
D---------------*|*-----------------------------------------------------------------|
A----------------|------------------------------------------------------------------|
E-----------------------------------------------------------------------------------|

                                    x2   Guitar Solo 3
E0-0-0-4p0-0-0-0-6p0-0-0-0-/3-4-3---------------------------------------------------|
B---------------------------------4~---|--9-----------------/9-12-11-12-9~~-/-11----|
G-------------------------------------*|----8-6-8-9-8-6-8-9----------------------11-|
D-------------------------------------*|--------------------------------------------|
A--------------------------------------|--------------------------------------------|
E-----------------------------------------------------------------------------------|

E-----------------------------------------------------------------------------------|
B----------------------/12-16-14-16-12~~-\8~-----------------/9-12-11-12-9~~-/-11---|
G-10-11-13-11-10-11-13-----------------------8-6-8-9-8-6-8-9----------------------11|
D-----------------------------------------------------------------------------------|
A-----------------------------------------------------------------------------------|
E-----------------------------------------------------------------------------------|

E-----------------------------------------12p9--------------------------------------|
B----------------------/12-16-14-16-12~~-------11-------------------------------|---|
G-10-11-13-11-10-11-13----------------------------12p9--------------------------|---|
D------------------------------------------------------11------------A.H...|----|---|
A---------------------------------------------------------13p10~~--\4-7~-6~--\--|--6|
E-----------------------------------------------------------------------------------|
                                                                                  pm

E-----------------------------------------------------------------------------------|
B-----------------------------------------------------------------------------------|
G-----------------------------------------------------------------------------------|
D-----------------------------------------------------------------------------------|
A--6-6-6-6--6-6-6-6--6-6-6-6-6-6-6-6-6-6--6-6-6-6--6-6-6-6--6-6-6-6-6-6-6-6-6-6--6-6|
E-----------------------------------------------------------------------------------|
 ...................................................................................

E-----------------------------------------------------------------------------------|
B-----------------------------------------------------------------------------------|
G-----------------------------------------------------------------------------------|
D-----------------------------------------------------------------------------------|
A-6-6--6-6-6-6--6-6-6-6-6-6-6-6-6-6--6-6-6-6--6-6-6-6--6-6-6-6-6-6-6-6-6-6--6-6-6-6-|
E-----------------------------------------------------------------------------------|
 ...................................................................................

                                      Chorus (2)
E-----------------------------------------------------------------------------------|
B-----------------------------------|-----------------------------------------------|
G-----------------------------------|------------------6-6\---6-6\---6-/-9----------|
D-----------------------------------|--6-6\----6-6\----6-6\---6-6\---6-/-9----------|
A-6-6-6-6--6-6-6-6-6-6-6--6--6--6---|--6-6\----6-6\----4-4\---4-4\---4-/-7-7-7-7-7-7|
E--------------------------------------4-4\----4-4\----4-4\---4-4\------------------|
 .................................|                                       pm........

E-----------------------------------------------------------------------------------|
B-----------------------------------------------------------------------------------|
G-------------------------------------------------------/6--------------------------|
D-------------------------------------------------------/6--------------------------|
A-7-7-7-7-7-7-7-7-7-7-----------------------------------/4-4-4-4-4-4-4-4-4-4-4-4-4-4|
E---------------------\7-7-7-7-7-7-7-7-7-7-7-7-7-7-7-7------------------------------|
 .....................................................|   pm........................

E-----------------------------------------------------------------------------------|
B-----------------------------------------------------------------------------------|
G----------------------------------------/-9----------------------------------------|
D----------------------------------------/-9----------------------------------------|
A-4-4-4----------------------------------/-7-7-7-7-7-7-7-7-7-7-7-7-7-7-7-7----------|
E-------\4-4-4-4-4-4-4-4-4-4-4-4-4-4-4-4-----------------------------------\7-7-7-7-|
 .......................................|   pm......................................

E-----------------------------------------------------------------------------------|
B-----------------------------------------------------------------------------------|
G----------------------------------------3-----------------/-9----------------------|
D-------------------------\-4------------4------------6~~--/-9----------------------|
A-------------------------\-4------------1-1-1-1-1-1--6~~--/-7-7-7-7-7-7-7-7-7-7-7-7|
E-7-7-7-7-7-7-7-7-7-7-7-7-\-2-2-2-2-2-2---------------4~~---------------------------|
 ........................|   pm........|  pm........|         pm....................

E-----------------------------------------------------------------------------------|
B-----------------------------------------------------------------------------------|
G------------------------------------------/-6--------------------------------------|
D------------------------------------------/-6--------------------------------------|
A-7-7-7-7----------------------------------/-4-4-4-4-4-4-4-4-4-4-4-4-4-4-4-4--------|
E---------\7-7-7-7-7-7-7-7-7-7-7-7-7-7-7-7-----------------------------------\4-4-4-|
 .........................................|   pm....................................

E-----------------------------------------------------------------------------------|
B-----------------------------------------------------------------------------------|
G--------------------------/-9------------------------------------------------------|
D--------------------------/-9------------------------------------------------------|
A--------------------------/-7-7-7-7-7-7-7-7-7-7-7-7-7-7-7-7------------------------|
E-4-4-4-4-4-4-4-4-4-4-4-4------------------------------------\7-7-7-7-7-7-7-7-7-7-7-|
 ........................|    pm....................................................

E-------------------------------------------------------------------||
B-------------------------------------------------------------------||
G-------------------------3-----------------------------------------|| end
D----------\-4------------4-------------6~--------------------------||
A----------\-4------------1-1-1-1-1-1---6~------------2----A.H.-----||
E-7-7-7-7--\-2-2-2-2-2-2----------------4~--4-4-5-5-4---4-5-4~~--\--||
 ........|    pm........|  pm........|

--------------------------------------------------------------------------------------

  Rhythm Guitar during Guitar Solos
E-----------------------------------------------------------------------------------|
B--------------------------------------|--------------------------------------------|
G---------6~----3~----------6~----3~---|*-------------------------------------------|
D---6~----6~----4~----6~----6~----4~---|*-------------------------------------------|
A---6~----4~----1~----6~----4~----1~---|------6~-4----------6~--4-----------7~-6----|
E---4~----4~----------4~----4~-------------4~------7-6-4-4~-------7-6-7--5~------9-7|

                   x4
E-----------------------------------------------------------------------------------|
B---------------------|-------------------------------------------------------------|
G--------------------*|-------------------------------------------------------------|
D--------------------*|---------------------------------------------------------A.H.|
A----4~---------------|-------2~---------6~--------2~---------6~-------------/4--7~-|
E-9-----7~-6-7-6\3-------4\------4~-6\------7~-3\-----4~-6\------7~--6~-\-3~--------|

E--------------||
B--------------|| 
G--------------|| end
D....|---------||
A-6~~~--\------||
E----------\---||

Добавлено: 21.07.2012
Другие материалы по этой песне:

Страница создана 02.05.2012
http://primanota.ru/luca-turilli/demonheart-chords.htm
Привет, Гость.
Предлагаем пройти революционный курс по гитаре.
Подарок от PrimaNota.Ru, забирай!