PrimaNota.ru - самый крупный в мире бесплатный архив песенных текстов, аккордов, табулатур и нот


Luca Turilli - Black Realms Majesty - текст песни, таба, видео

Регистрация Запомнить меня
Войти через:  Facebook Google Twitter Vk Yandex Mail.ru

Luca Turilli - Black Realms Majesty - текст песни, таба, видео

Печатать
Просмотров: 204
Уроки эстрадного вокала в Санкт-Петербурге
***** FOR GOD'S SAKE, READ THIS*****
This is only the lead guitar part for the song.  I have already submitted a
guitarpro file with every part of the song included.  You can find it here.

http://tabs.ultimate-guitar.com/l/luca_turilli/black_realms_majesty_guitar_pro.htm

PS:  I hate you all.

Guitar 1
E||-------|-------|-------|-------|-------|-------|-------|-------|
B||-------|-------|-------|-------|-------|-------|-------|-------|
G||-------|-------|-------|-------|-------|-------|-------|-------|
D||-------|-------|-------|-------|-------|-------|-------|-------|
A||-------|-------|-------|-------|-------|-------|-------|-------|
E||-------|-------|-------|-------|-------|-------|-------|-------|


  H        E  S S    S S S S S S S S S S S S    S S S S S S S S S S S S
------------------|--------------------------|--------------------------|
------------------|--------------------------|--------------------------|
------------------|--------------------------|--------------------------|
------------------|--------------1-1-1-6-6-6-|--3-3-3-------------------|
--------------0-2-|--3-3-3-5-5-5-------------|--------3-3-3-------2-0-2-|
------------------|--------------------------|--------------3-3-3-------|


  S S S S S S S S S S S S    S S S S S S S S S S S S
--------------------------|--------------------------|
--------------------------|--------------------------|
--------------------------|--------------------------|
--------------1-1-1-6-6-6-|--3-3-3-------------------|
--3-3-3-5-5-5-------------|--------2-2-2-3-6-5-3-0-2-|
--------------------------|--------------------------|


  S S S S S S S S S S S S    S S S S S S S S S S S S
--------------------------|--------------------------|
--------------------------|--------------------------|
--------------------------|--------------------------|
--------------1-1-1-6-6-6-|--3-3-3-------------------|
--3-3-3-5-5-5-------------|--------3-3-3-------2-0-2-|
--------------------------|--------------3-3-3-------|


  S S S S S S S S S S S S    S S S S S S S S S S S S
--------------------------|--------------------------|
--------------------------|--------------------------|
--------------------------|--------------------------|
--------------1-1-1-6-6-6-|--3-3-3-------------------|
--3-3-3-5-5-5-------------|--------2-2-2-3-6-5-3-L-L-|
--------------------------|--------------------------|


   S  S  S  S  S  S  S  S  S  S  S  S  S  S  S  S
--------------------------------------------------|
--------------------------------------------------|
--13-17-15-17-13-17-15-17-------------------------|
--------------------------18-15-13-15-18-15-13-15-|
--------------------------------------------------|
--------------------------------------------------|


   S  S  S  S  S  S  S  S  S  S S  S  S  S S  S
------------------------------------------------|
------------------------------------------------|
--12-15-13-15-12-15-13-15-----------------------|
--------------------------15-12-9-12-15-12-9-12-|
------------------------------------------------|
------------------------------------------------|


   S  S  S  S  S  S  S  S  S S  S S  S S  S S
----------------------------------------------|
----------------------------------------------|
--10-13-12-13-10-13-12-13---------------------|
--------------------------12-9----9-12-9----9-|
-------------------------------11--------11---|
----------------------------------------------|


   S   S S S S  S  S  S  S S S S S S S S     E   E   E   E   Q      Q
-----------------------------------------|--16--13------------------------|
-----------------------------------------|----------15--------------------|
-----------------------------------------|--------------16--13~----12~----|
--10~-------------10----10-L-L-L-L-L-L-L-|--------------------------------|
------10-6---6-10----10------------------|--------------------------------|
-----------8-----------------------------|--------------------------------|


   Q      H         Q       S S S S S S S S S S S S S S S S
-------------------------|----------------------------------|
--16~----15~--------L----|----------------------------------|
-------------------------|----------------------------------|
-------------------------|--5-1-5-1-5-1-5-6-5-1-5-1-5-1-5-6-|
-------------------------|----------------------------------|
-------------------------|----------------------------------|


  S S S S S S S S S S S S S S S S    S S S S S S S S S S S S S S S S
----------------------------------|----------------------------------|
----------------------------------|----------------------------------|
----------------------------------|----------------------------------|
--6-3-6-3-6-3-6-3-8-3-6-3-6-3-6-3-|--5-1-5-1-5-1-5-6-5-1-5-1-5-1-5-6-|
----------------------------------|----------------------------------|
----------------------------------|----------------------------------|


  S S S S S S S S S S S S S S S S    W                     H        H
----------------------------------|--------------------|---------------------|
----------------------------------|--------------------|---------------------|
----------------------------------|--------------------|---------------------|
--6-3-6-3-6-3-6-3-8-3-6-3-6-3-6-3-|--6~----------------|--10--------7--------|
----------------------------------|--7-----------------|---8--------5--------|
----------------------------------|--------------------|---------------------|


  H        H           E  E  E  E   E  E  E  E     E  E  E  E  E  E  E  E
--------------------|---------------------------|--------------------------|
--------------------|---------------------------|--------------------------|
--------------------|---------------------------|--------------------------|
--8-----------------|--------4-----/7--4--------|--------------------------|
--6--------6--------|-----------3---------3--6--|--6--------6--------6-----|
-----------4--------|--2--5---------------------|-----3--3-----3--3-----3--|


  H        H            S S S S S S S S S S S S S S S S
---------------------|----------------------------------|
-----------8~--------|----------------------------------|
---------------------|----------------------------------|
--7--------L---------|--5-1-5-1-5-1-5-6-5-1-5-1-5-1-5-6-|
--5--------L---------|----------------------------------|
--5--------L---------|----------------------------------|


  S S S S S S S S S S S S S S S S    S S S S S S S S S S S S S S S S
----------------------------------|----------------------------------|
----------------------------------|----------------------------------|
----------------------------------|----------------------------------|
--6-3-6-3-6-3-6-3-8-3-6-3-6-3-6-3-|--5-1-5-1-5-1-5-6-5-1-5-1-5-1-5-6-|
----------------------------------|----------------------------------|
----------------------------------|----------------------------------|


  S S S S S S S S S S S S S S S S    W                    H        H
----------------------------------|-------------------|---------------------|
----------------------------------|-------------------|---------------------|
----------------------------------|-------------------|---------------------|
--6-3-6-3-6-3-6-3-8-3-6-3-6-3-6-3-|--6----------------|--10--------7--------|
----------------------------------|--7----------------|---8--------5--------|
----------------------------------|-------------------|---------------------|


  H        H           E  E  E  E   E  E  E  E     E  E  E  E  E  E  E  E
--------------------|---------------------------|--------------------------|
--------------------|---------------------------|--------------------------|
--------------------|---------------------------|--------------------------|
--8-----------------|--------4-----/7--4--------|--------------------------|
--6--------6--------|-----------3---------3--6--|--6--------6--------6-----|
-----------4--------|--2--5---------------------|-----3--3-----3--3-----3--|


  H        H            Q    E  E  Q    E  E     Q    Q    Q    Q
---------------------|------------------------|----------------------|
-----------8~--------|------------------------|----------------------|
---------------------|------------------------|----------------------|
--7--------L---------|------------------------|----------------------|
--5--------L---------|--3----3--5--6----5--3--|-------5----3---------|
--5--------L---------|------------------------|--6--------------3----|


  Q    E  E  Q    E  E     Q    Q    H           Q    E  E  Q    E  E
------------------------|---------------------|------------------------|
------------------------|---------------------|------------------------|
------------------------|---------------------|------------------------|
------------------------|---------------------|------------------------|
--3----3--5--6----5--3--|--8----6----5--------|--3----3--5--6----5--3--|
------------------------|--6----4----3--------|------------------------|


  Q    Q    Q    Q       Q    E  E  Q    E  E     Q    Q    H
----------------------|------------------------|---------------------|
----------------------|------------------------|---------------------|
----------------------|------------------------|---------------------|
----------------------|------------------------|------------5--------|
-------5----3---------|--3----3--5--6----5--3--|--8----5----3--------|
--6--------------3----|------------------------|--6----3-------------|


  S S S S S S S S S S S S S S S S    S S S S S S S S S S S S S S S S
----------------------------------|----------------------------------|
----------------------------------|----------------------------------|
----------------------------------|----------------------------------|
----------------------------------|----------------------------------|
----------------------------------|----------------------------------|
--4-4-4-4-4-4-4-4-4-4-4-4-4-4-4-4-|--4-4-4-4-4-4-4-4-4-4-4-4-4-4-4-4-|


  W                   Q     Q     E.  Q    S
-------------------|-------------------------|
-------------------|-------------------------|
--8----------------|--L----------------------|
--8----------------|--L----------------------|
--6----------------|--L----------------------|
-------------------|-------/4----/4---3----L-|


  S S S S S S S S S S S S S S S S    S S S S S S S S S S S S S S S S
----------------------------------|----------------------------------|
----------------------------------|----------------------------------|
----------------------------------|----------------------------------|
----------------------------------|----------------------------------|
----------------------------------|----------------------------------|
--1-1-1-1-1-1-1-1-1-1-1-1-1-1-1-1-|--1-1-1-1-1-1-1-1-1-1-1-1-1-1-1-1-|


  W                   Q    Q    Q    Q       W
-------------------|----------------------|-------------------|
-------------------|--8----8--------------|-------------------|
--5----------------|------------7----3----|-------------------|
--5----------------|----------------------|--8----------------|
--3----------------|----------------------|--6----------------|
-------------------|----------------------|--6----------------|


   Q.     Q.     Q       W                    Q.     Q.     Q
----------------------|-------------------|----------------------|
----------------------|-------------------|----------------------|
----------------------|--8----------------|----------------------|
----------------------|--8----------------|----------------------|
-----------------5----|--6----------------|--/6------3-----------|
--/6------8-----------|-------------------|-----------------6----|


  W                   W                   W                   W
-------------------|-------------------|-------------------|-------------------|
-------------------|-------------------|-------------------|-------------------|
-------------------|-------------------|-------------------|-------------------|
--6----------------|--L----------------|--5----------------|--5----------------|
--6----------------|--L----------------|--6----------------|--5----------------|
--4----------------|--L----------------|--3----------------|--3----------------|


  W                   W                   Q    Q    Q
-------------------|-------------------|-----------------|-------|-------|
-------------------|-------------------|-----------------|-------|-------|
-------------------|-------------------|--5--------------|-------|-------|
--5----------------|--5----------------|--5--------------|-------|-------|
--6----------------|--5----------------|--3--------------|-------|-------|
--3----------------|--3----------------|-----------------|-------|-------|


                                  H        E  S S    S S S S S S S S S S S S
-------|-------|-------|-------|------------------|--------------------------|
-------|-------|-------|-------|------------------|--------------------------|
-------|-------|-------|-------|------------------|--------------------------|
-------|-------|-------|-------|------------------|--------------1-1-1-6-6-6-|
-------|-------|-------|-------|--------------0-2-|--3-3-3-5-5-5-------------|
-------|-------|-------|-------|------------------|--------------------------|


  S S S S S S S S S S S S    S S S S S S S S S S S S
--------------------------|--------------------------|
--------------------------|--------------------------|
--------------------------|--------------------------|
--3-3-3-------------------|--------------1-1-1-6-6-6-|
--------3-3-3-------2-0-2-|--3-3-3-5-5-5-------------|
--------------3-3-3-------|--------------------------|


  S S S S S S S S S S S S    S S S S S S S S S S S S
--------------------------|--------------------------|
--------------------------|--------------------------|
--------------------------|--------------------------|
--3-3-3-------------------|--------------1-1-1-6-6-6-|
--------2-2-2-3-6-5-3-0-2-|--3-3-3-5-5-5-------------|
--------------------------|--------------------------|


  S S S S S S S S S S S S    S S S S S S S S S S S S
--------------------------|--------------------------|
--------------------------|--------------------------|
--------------------------|--------------------------|
--3-3-3-------------------|--------------1-1-1-6-6-6-|
--------3-3-3-------2-0-2-|--3-3-3-5-5-5-------------|
--------------3-3-3-------|--------------------------|


  S S S S S S S S S S S S    H         H            H         H
--------------------------|----------------------|----------------------|
--------------------------|----------------------|----------------------|
--------------------------|----------------------|----------------------|
--3-3-3-------------------|----------------------|----------------------|
--------2-2-2-3-6-5-3-L-L-|------------5~--------|----------------------|
--------------------------|--4~------------------|--3~--------4~--------|


  H         Q    Q       Q    Q    Q    Q        E   E   E   E   Q      Q
----------------------|----------------------|--16--13------------------------|
----------------------|----------------------|----------15--------------------|
----------------------|----------------------|--------------16--13~----12~----|
----------------------|----------------------|--------------------------------|
------------6----5----|--3----L----L----L----|--------------------------------|
--1~------------------|----------------------|--------------------------------|


   Q      H         Q       S S S S S S S S S S S S S S S S
-------------------------|----------------------------------|
--16~----15~--------L----|----------------------------------|
-------------------------|----------------------------------|
-------------------------|--5-1-5-1-5-1-5-6-5-1-5-1-5-1-5-6-|
-------------------------|----------------------------------|
-------------------------|----------------------------------|


  S S S S S S S S S S S S S S S S    S S S S S S S S S S S S S S S S
----------------------------------|----------------------------------|
----------------------------------|----------------------------------|
----------------------------------|----------------------------------|
--6-3-6-3-6-3-6-3-8-3-6-3-6-3-6-3-|--5-1-5-1-5-1-5-6-5-1-5-1-5-1-5-6-|
----------------------------------|----------------------------------|
----------------------------------|----------------------------------|


  S S S S S S S S S S S S S S S S    W                     H        H
----------------------------------|--------------------|---------------------|
----------------------------------|--------------------|---------------------|
----------------------------------|--------------------|---------------------|
--6-3-6-3-6-3-6-3-8-3-6-3-6-3-6-3-|--6-----------------|--10--------7--------|
----------------------------------|--7~----------------|---8--------5--------|
----------------------------------|--------------------|---------------------|


  H        H           E  E  E  E   E  E  E  E     E  E  E  E  E  E  E  E
--------------------|---------------------------|--------------------------|
--------------------|---------------------------|--------------------------|
--------------------|---------------------------|--------------------------|
--8-----------------|--------4-----/7--4--------|--------------------------|
--6--------6--------|-----------3---------3--6--|--6--------6--------6-----|
-----------4--------|--2--5---------------------|-----3--3-----3--3-----3--|


  H        H            S S S S S S S S S S S S S S S S
---------------------|----------------------------------|
-----------8~--------|----------------------------------|
---------------------|----------------------------------|
--7--------L---------|--5-1-5-1-5-1-5-6-5-1-5-1-5-1-5-6-|
--5--------L---------|----------------------------------|
--5--------L---------|----------------------------------|


  S S S S S S S S S S S S S S S S    S S S S S S S S S S S S S S S S
----------------------------------|----------------------------------|
----------------------------------|----------------------------------|
----------------------------------|----------------------------------|
--6-3-6-3-6-3-6-3-8-3-6-3-6-3-6-3-|--5-1-5-1-5-1-5-6-5-1-5-1-5-1-5-6-|
----------------------------------|----------------------------------|
----------------------------------|----------------------------------|


  S S S S S S S S S S S S S S S S    W                    H        H
----------------------------------|-------------------|---------------------|
----------------------------------|-------------------|---------------------|
----------------------------------|-------------------|---------------------|
--6-3-6-3-6-3-6-3-8-3-6-3-6-3-6-3-|--6----------------|--10--------7--------|
----------------------------------|--7----------------|---8--------5--------|
----------------------------------|-------------------|---------------------|


  H        H           E  E  E  E   E  E  E  E     E  E  E  E  E  E  E  E
--------------------|---------------------------|--------------------------|
--------------------|---------------------------|--------------------------|
--------------------|---------------------------|--------------------------|
--8-----------------|--------4-----/7--4--------|--------------------------|
--6--------6--------|-----------3---------3--6--|--6--------6--------6-----|
-----------4--------|--2--5---------------------|-----3--3-----3--3-----3--|


  H        H            Q    E  E  Q    E  E     Q    Q    Q    Q
---------------------|------------------------|----------------------|
-----------8~--------|------------------------|----------------------|
---------------------|------------------------|----------------------|
--7--------L---------|------------------------|----------------------|
--5--------L---------|--3----3--5--6----5--3--|-------5----3---------|
--5--------L---------|------------------------|--6--------------3----|


  Q    E  E  Q    E  E     Q    Q    H           Q    E  E  Q    E  E
------------------------|---------------------|------------------------|
------------------------|---------------------|------------------------|
------------------------|---------------------|------------------------|
------------------------|---------------------|------------------------|
--3----3--5--6----5--3--|--8----6----5--------|--3----3--5--6----5--3--|
------------------------|--6----4----3--------|------------------------|


  Q    Q    Q    Q       Q    E  E  Q    E  E     Q    Q    H
----------------------|------------------------|---------------------|
----------------------|------------------------|---------------------|
----------------------|------------------------|---------------------|
----------------------|------------------------|------------5--------|
-------5----3---------|--3----3--5--6----5--3--|--8----5----3--------|
--6--------------3----|------------------------|--6----3-------------|


  S S S S S S S S S S S S S S S S    S S S S S S S S S S S S S S S S
----------------------------------|----------------------------------|
----------------------------------|----------------------------------|
----------------------------------|----------------------------------|
----------------------------------|----------------------------------|
----------------------------------|----------------------------------|
--4-4-4-4-4-4-4-4-4-4-4-4-4-4-4-4-|--4-4-4-4-4-4-4-4-4-4-4-4-4-4-4-4-|


  W                   Q     Q     E.  Q    S
-------------------|-------------------------|
-------------------|-------------------------|
--8----------------|--L----------------------|
--8----------------|--L----------------------|
--6----------------|--L----------------------|
-------------------|-------/4----/4---3----L-|


  S S S S S S S S S S S S S S S S    S S S S S S S S S S S S S S S S
----------------------------------|----------------------------------|
----------------------------------|----------------------------------|
----------------------------------|----------------------------------|
----------------------------------|----------------------------------|
----------------------------------|----------------------------------|
--1-1-1-1-1-1-1-1-1-1-1-1-1-1-1-1-|--1-1-1-1-1-1-1-1-1-1-1-1-1-1-1-1-|


  W                   Q    Q    Q    Q       W
-------------------|----------------------|-------------------|
-------------------|--8----8--------------|-------------------|
--5----------------|------------7----3----|-------------------|
--5----------------|----------------------|--8----------------|
--3----------------|----------------------|--6----------------|
-------------------|----------------------|--6----------------|


   Q.     Q.     Q       W                    Q.     Q.     Q
----------------------|-------------------|----------------------|
----------------------|-------------------|----------------------|
----------------------|--8----------------|----------------------|
----------------------|--8----------------|----------------------|
-----------------5----|--6----------------|--/6------3-----------|
--/6------8-----------|-------------------|-----------------6----|


  W                   W                   W                   W
-------------------|-------------------|-------------------|-------------------|
-------------------|-------------------|-------------------|-------------------|
-------------------|-------------------|-------------------|-------------------|
--6----------------|--L----------------|--5----------------|--5----------------|
--6----------------|--L----------------|--6----------------|--5----------------|
--4----------------|--L----------------|--3----------------|--3----------------|


  W                   W                   Q    Q    Q    Q
-------------------|-------------------|----------------------|
-------------------|-------------------|----------------------|
-------------------|-------------------|--5-------------------|
--5----------------|--5----------------|--5-------------------|
--6----------------|--5----------------|--3-------------------|
--3----------------|--3----------------|----------------------|


  H        H           Q    H        Q       W
--------------------|---------------------|-------------------|
--------------------|---------------------|-------------------|
--3--------5--------|--5------------------|--3----------------|
--3--------5--------|--5------------------|--3----------------|
--1--------3--------|--3------------------|--1----------------|
--------------------|---------------------|-------------------|


  Q    H        Q       H        H           W
---------------------|--------------------|-------------------|
---------------------|--------------------|-------------------|
--5------------------|--3--------5--------|-------------------|
--5------------------|--3--------5--------|--5----------------|
--3------------------|--1--------3--------|--5----------------|
---------------------|--------------------|--3----------------|


                              PM PM      PM PM
  H         H            Q    E  E  Q    E  E     H        Q    E  E
----------------------|------------------------|----------------------|
----------------------|------------------------|----------------------|
----------------------|--5----------5----------|--7--------8----L--L--|
--L--------/L\--------|--5----------5----------|--7--------8----L--L--|
--L--------/L\--------|--3----3--3--3----3--3--|--5--------6----6--5--|
--L--------/L\--------|------------------------|----------------------|


       PM PM      PM PM                             PM PM      PM PM
  Q    E  E  Q    E  E     W                   Q    E  E  Q    E  E
------------------------|-------------------|------------------------|
------------------------|-------------------|------------------------|
--5----------5----------|--3----------------|--5----------5----------|
--5----------5----------|--3----------------|--5----------5----------|
--3----3--3--3----3--3--|--1----------------|--3----3--3--3----3--3--|
------------------------|-------------------|------------------------|


                              PM PM      PM PM         PM PM   PH
  H        Q    E  E     Q    E  E  Q    E  E     Q    E  E    H
----------------------|------------------------|-------------------------|
----------------------|------------------------|-------------------------|
--7--------8----L--L--|------------------------|-------------------------|
--7--------8----L--L--|--5----------5----------|--5----------<>5~--------|
--5--------6----6--5--|--5----------5----------|--5----------------------|
----------------------|--3----3--3--3----3--3--|--3----3--3--------------|


-----------|-----------|-------|-------|-------|-------|-------|-------|-------|
-----------|-----------|-------|-------|-------|-------|-------|-------|-------|
-----------|-----------|-------|-------|-------|-------|-------|-------|-------|
-----------|-----------|-------|-------|-------|-------|-------|-------|-------|
-----------|-----------|-------|-------|-------|-------|-------|-------|-------|
-----------|-----------|-------|-------|-------|-------|-------|-------|-------|


-------|-------|-------|-------|-------|-------|-------|
-------|-------|-------|-------|-------|-------|-------|
-------|-------|-------|-------|-------|-------|-------|
-------|-------|-------|-------|-------|-------|-------|
-------|-------|-------|-------|-------|-------|-------|
-------|-------|-------|-------|-------|-------|-------|


  S S S S S S S S S S S S S S S S    S S S S S S S S S S S S S S S S
----------------------------------|----------------------------------|
--8-4-----------4-8-4-----------4-|--8-4-----------4-8-4-----------4-|
------5-------5-------5-------5---|------5-------5-------5-------5---|
----------------------------------|----------------------------------|
--------6-3-6-----------6-3-6-----|--------6-3-6-----------6-3-6-----|
----------------------------------|----------------------------------|


  S S S S S S S S S S S S S S S S    S S S S S S S S H
----------------------------------|----------------------------|
--9-6-----------------------------|----------------------------|
------7-------------7-------------|----7-----------------------|
--------9-6-------6---9-6---------|--6---9-6-------------------|
------------8-5-----------8-5-----|----------8-5---------------|
----------------7-------------7-4-|--------------7-4-4~--------|


  E  E  E   E   E   E   E   E      E   E   E   E   E   E   E   E
-------------------------------|--20--15--16--13--15--11--13--10--|
-----------------------13------|----------------------------------|
---------------12----------12--|----------------------------------|
--------5--10------10----------|----------------------------------|
--3--6-------------------------|----------------------------------|
-------------------------------|----------------------------------|


   E   E   E   E   S. S  S  Q    T     S. S  S  Q    T  S. S  S  Q    T
----------15--19--22-19------------|--19-15------------15-10------------|
------------------------20---------|--------15---------------12---------|
--16--19-------------------19----L-|-----------16----L----------12----L-|
-----------------------------------|------------------------------------|
-----------------------------------|------------------------------------|
-----------------------------------|------------------------------------|


  S S S S S S S S S S S S S S S S    S S S S S S S S S S S S S S S S
----------------------------------|----------------------------------|
--8-4-----------4-8-4-----------4-|--8-4-----------4-8-4-----------4-|
------5-------5-------5-------5---|------5-------5-------5-------5---|
----------------------------------|----------------------------------|
--------6-3-6-----------6-3-6-----|--------6-3-6-----------6-3-6-----|
----------------------------------|----------------------------------|


  S S S S S S S S S S S S S S S S    S S S S S S S S H
----------------------------------|----------------------------|
--9-6-----------------------------|----------------------------|
------7-------------7-------------|----7-----------------------|
--------9-6-------6---9-6---------|--6---9-6-------------------|
------------8-5-----------8-5-----|----------8-5---------------|
----------------7-------------7-4-|--------------7-4-4~--------|


  E  E  E   E   E   E   E   E      E   E   E   E   E   E   E   E
-------------------------------|--20--15--16--13--15--11--13--10--|
-----------------------13------|----------------------------------|
---------------12----------12--|----------------------------------|
--------5--10------10----------|----------------------------------|
--3--6-------------------------|----------------------------------|
-------------------------------|----------------------------------|


   S. S  S  Q    T  S. S  S  Q    T     S. S  S  Q    T  E   E   E   E
--22-19------------19-15------------|--15-10--------------------10--15--|
--------20---------------15---------|--------12-------------12----------|
-----------19----L----------16----L-|-----------12----L-12--------------|
------------------------------------|-----------------------------------|
------------------------------------|-----------------------------------|
------------------------------------|-----------------------------------|


   S. S  S  Q    T  S. S  S  Q    T     S. S  S  Q    T  E   E   E   E
--22-19------------19-15------------|--15-10--------------------10------|
--------20---------------15---------|--------12-------------12------12--|
-----------19----L----------16----L-|-----------12----L-12--------------|
------------------------------------|-----------------------------------|
------------------------------------|-----------------------------------|
------------------------------------|-----------------------------------|


   W                    S S S S S S S S S S S S S S S S    W
---------------------|----------------------------------|-------------------|
--13~----------------|----------------------------------|-------------------|
---------------------|----------------------------------|--8----------------|
---------------------|----------------------------------|--8----------------|
---------------------|----------------------------------|--6----------------|
---------------------|--4-4-4-4-4-4-4-4-4-4-4-4-4-4-4-4-|-------------------|


  Q     Q     E.  Q    S    S S S S S S S S S S S S S S S S
-------------------------|----------------------------------|
-------------------------|----------------------------------|
--L----------------------|----------------------------------|
--L----------------------|----------------------------------|
--L----------------------|----------------------------------|
-------/4----/4---3----L-|--1-1-1-1-1-1-1-1-1-1-1-1-1-1-1-1-|


  S S S S S S S S S S S S S S S S    W                   Q    Q    Q    Q
----------------------------------|-------------------|----------------------|
----------------------------------|-------------------|--8----8--------------|
----------------------------------|--5----------------|------------7----3----|
----------------------------------|--5----------------|----------------------|
----------------------------------|--3----------------|----------------------|
--1-1-1-1-1-1-1-1-1-1-1-1-1-1-1-1-|-------------------|----------------------|


  W                    Q.     Q.     Q       W
-------------------|----------------------|-------------------|
-------------------|----------------------|-------------------|
-------------------|----------------------|--8----------------|
--8----------------|----------------------|--8----------------|
--6----------------|-----------------5----|--6----------------|
--6----------------|--/6------8-----------|-------------------|


   Q.     Q.     Q       W                   W
----------------------|-------------------|-------------------|
----------------------|-------------------|-------------------|
----------------------|-------------------|-------------------|
----------------------|--6----------------|--L----------------|
--/6------3-----------|--6----------------|--L----------------|
-----------------6----|--4----------------|--L----------------|


  W                   W                   W                   W
-------------------|-------------------|-------------------|-------------------|
-------------------|-------------------|-------------------|-------------------|
-------------------|-------------------|-------------------|-------------------|
--5----------------|--5----------------|--5----------------|--5----------------|
--6----------------|--5----------------|--6----------------|--5----------------|
--3----------------|--3----------------|--3----------------|--3----------------|


  S S S S S S S S S S S S    S S S S S S S S S S S S
--------------------------|--------------------------|
--------------------------|--------------------------|
--------------------------|--------------------------|
--------------1-1-1-6-6-6-|--3-3-3-------------------|
--3-3-3-5-5-5-------------|--------3-3-3-------2-0-2-|
--------------------------|--------------3-3-3-------|


  S S S S S S S S S S S S    S S S S S S S S S S S S
--------------------------|--------------------------|
--------------------------|--------------------------|
--------------------------|--------------------------|
--------------1-1-1-6-6-6-|--3-3-3-------------------|
--3-3-3-5-5-5-------------|--------2-2-2-3-6-5-3-0-2-|
--------------------------|--------------------------|


  S S S S S S S S S S S S    S S S S S S S S S S S S
--------------------------|--------------------------|
--------------------------|--------------------------|
--------------------------|--------------------------|
--------------1-1-1-6-6-6-|--3-3-3-------------------|
--3-3-3-5-5-5-------------|--------3-3-3-------2-0-2-|
--------------------------|--------------3-3-3-------|


  S S S S S S S S S S S S    S S S S S S S S S S S S
--------------------------|--------------------------||
--------------------------|--------------------------||
--------------------------|--------------------------||
--------------1-1-1-6-6-6-|--3-3-3-------------------||
--3-3-3-5-5-5-------------|--------2-2-2-3-6-5-3-L-L-||
--------------------------|--------------------------||




Duration Legend
---------------
W - whole
H - half
Q - quarter
E - 8th
S - 16th
T - 32nd
X - 64th
. - note dotted
|-n-|  - n-tuplets


Tablature Legend
----------------
L - tied note
x - dead note
g - grace note
(n) - ghost note
> - accentuded note
NH - natural harmonic
AH - artificial harmonic
TH - tapped harmonic
SH - semi harmonic
PH - pitch harmonic
h - hammer on
p - pull off
b - bend
br - bendRelease
pb - preBend
pbr - preBendRelease
brb - bendReleaseBend
\n/ - tremolo bar dip
\n - tremolo bar dive
-/n - tremolo bar Release up
/n\ - tremolo bar inverted dip
/n - tremolo bar return
-\n - tremolo bar Release down
S - shift slide
s - legato slide
/ -  slide into from below or out of upwards
\ -  slide into from above or out of downwards
~ - vibrato
W - wide vibrato
tr - trill
TP - tremolo picking
T - tapping
S - slap
P - pop
< - fade in
^ - brush up
v - brush down
Добавлено: 25.06.2012
Другие материалы по этой песне:

Страница создана 01.03.2012
http://primanota.ru/luca-turilli/black-realms-majesty-chords.htm
Привет, Гость.
Предлагаем пройти революционный курс по гитаре.
Подарок от PrimaNota.Ru, забирай!