PrimaNota.ru - самый крупный в мире бесплатный архив песенных текстов, аккордов, табулатур и нот


Luca Turilli - Angels Of The Winter Dawn - текст песни, бас-таба, видео

Регистрация Запомнить меня
Войти через:  Facebook Google Twitter Vk Yandex Mail.ru

Luca Turilli - Angels Of The Winter Dawn - текст песни, бас-таба, видео

Печатать
Просмотров: 87
Luca Turilli- Angels of the Winter Dawn- Bass tab

|----|---------------------------|-------------------------------|
|----|---------------------------|-------------------------------|
|----|-2-2-2---2-2-2--2-2-2-2-2-2|-2-2-2---2-2-2--2-2-2-2-2-2----|
|----|---------------------------|-------------------------------|

|-------------------------------|-------------------------------|
|-------------------------------|-------------------------------|
|-2-2-2---2-2-2--2-2-2-2-2-2----|-2-2-2---2-2-2--2-2-2-2-2-2----|
|-------------------------------|-------------------------------|

|----------------------------|----------------------------|
|*---------------------------|---------------------------*|
|*----7/8---7-5-----7/8-7-5--|-----7/8-8-7-5-----7/8-7-5-*|
|--5-5-----------5-5---------|--5-5-----------5-5---------|

|------------------|-----------------|-------------------|
|------------------|*----------------|-------------------|
|-0-0-0-0-0-0-0-0-0|*-2-2-2-2-2-2-2-2|0-0-0-0-0-0-0-0-0--|
|------------------|-----------------|-------------------|

|-------------------|
|------------------*|
|-2-2-2-2-2-2-2-2-2*|
|-------------------|

|--------------------|--------------------|--------------------|
|--------------------|--------------------|--------------------|
|-2-2-2-2-2-2-2-2-2-2|0-0-0-0-0-0-0-0-0-0-|0-0-0-0-0-0-0-0-0-0-|
|--------------------|--------------------|--------------------|

|-----------------------|--------------------|
|-----------------------|--------------------|
|-3-3-3-3-3-3-3-3--5-7--|-7-7-7-7-7-7-7-7----|
|-----------------------|-----------------3-5|

|----------------------|-----------------|-----------------|
|----------------------|-----------------|-----------------|
|----------------------|-----------------|-----------------|
|-7-7-7-7-7-7-7-7--5-3-|-2-2-2-2-2-2-2-2-|-1-1-1-1-1-1-1-1-|

|-----------------------|--------------------|
|-----------------------|--------------------|
|-3-3-3-3-3-3-3-3--5-7--|-7-7-7-7-7-7-7-7----|
|-----------------------|-----------------3-5|

|----------------------|-----------------|-----------------|
|----------------------|-----------------|-----------------|
|----------------------|-----------------|-----------------|
|-7-7-7-7-7-7-7-7--5-3-|-2-2-2-2-2-2-2-2-|-1-1-1-1-1-1-1-1-|

|----------------------------|----------------------------|
|----------------------------|----------------------------|
|-----7/8-8-7-5-----7/8-7-5--|-----7/8-8-7-5-----7/8-7-5--|
|--5-5-----------5-5---------|--5-5-----------5-5---------|

|------------------|-----------------|--------------------|
|------------------|-----------------|--------------------|
|-0-0-0-0-0-0-0-0-0|-2-2-2-2-2-2-2-2-|0-0-0-0-0-0-0-0-0---|
|------------------|-----------------|--------------------|

|-------------------|--------------------|
|-------------------|--------------------|
|-2-2-2-2-2-2-2-2-2-|0-0-0-0-0-0-0-0-0-0-|
|-------------------|--------------------|

|-----------------------|---------------------|
|*----------------------|---------------------|
|*3-3-3-3-3-3-3-3--5-7--|-7-7-7-7-7-7-7-7-----|
|-----------------------|-----------------3-5-|

|----------------------|-----------------|-----------------|
|----------------------|-----------------|-----------------|
|----------------------|-----------------|-----------------|
|-7-7-7-7-7-7-7-7--5-3-|-2-2-2-2-2-2-2-2-|-1-1-1-1-1-1-1-1-|

|-----------------------|--------------------|
|-----------------------|--------------------|
|-3-3-3-3-3-3-3-3--5-7--|-7-7-7-7-7-7-7-7----|
|-----------------------|-----------------3-5|

|----------------------|-----------------|-----------------|
|----------------------|-----------------|-----------------|
|----------------------|-----------------|-----------------|
|-7-7-7-7-7-7-7-7--5-3-|-2-2-2-2-2-2-2-2-|-1-1-1-1-1-1-1-1-|

|---------------------------|-------------------------------|
|---------------------------|-------------------------------|
|-2-2-2---2-2-2--2-2-2-2-2-2|-2-2-2---2-2-2--2-2-2-2-2-2----|
|---------------------------|-------------------------------|

|-------------------------------|-------------------------------|
|-------------------------------|-------------------------------|
|-2-2-2---2-2-2--2-2-2-2-2-2----|-2-2-2---2-2-2--2-2-2-2-2-2---2|
|-------------------------------|-------------------------------|

|----------------------------|----------------------------|
|*---------------------------|---------------------------*|
|*----7/8-8-7-5-----7/8-7-5--|-----7/8-8-7-5-----7/8-7-5-*|
|--5-5-----------5-5---------|--5-5-----------5-5---------|


|--------------------|--------------------|
|--------------------|--------------------|
|0-0-0-0-0-0-0-0-0-0-|0-0-0-0-0-0-0-0-0-0-|
|--------------------|--------------------|

|-----------------------|--------------------|
|-----------------------|--------------------|
|-3-3-3-3-3-3-3-3--5-7--|-7-7-7-7-7-7-7-7----|
|-----------------------|-----------------3-5|

|----------------------|-----------------|-----------------|
|----------------------|-----------------|-----------------|
|----------------------|-----------------|-----------------|
|-7-7-7-7-7-7-7-7--5-3-|-2-2-2-2-2-2-2-2-|-1-1-1-1-1-1-1-1-|

|-----------------------|---------------------|
|*----------------------|--------------------*|
|*-3-3-3-3-3-3-3-3--5-7-|-7-7-7-7-7-7-7-7----*|
|-----------------------|-----------------3-5-|

|----------------------|-----------------|-----------------|
|----------------------|-----------------|-----------------|
|----------------------|-----------------|-----------------|
|-7-7-7-7-7-7-7-7--5-3-|-2-2-2-2-2-2-2-2-|-1-1-1-1-1-1-1-1-|

|-----------------------|--------------------|
|-----------------------|--------------------|
|-3-3-3-3-3-3-3-3--5-7--|-7-7-7-7-7-7-7-7----|
|-----------------------|-----------------3-5|

|----------------------|-----------------|-----------------|
|----------------------|-----------------|----------------*|
|----------------------|-----------------|----------------*|
|-7-7-7-7-7-7-7-7--5-3-|-2-2-2-2-2-2-2-2-|-1-1-1-1-1-1-1-1-|

|-----------------------|--------------------|
|-----------------------|--------------------|
|-3-3-3-3-3-3-3-3--5-7--|-7-7-7-7-7-7-7-7----|
|-----------------------|-----------------3-5|

|----------------------|-----------------|-----------------|
|----------------------|-----------------|-----------------|
|----------------------|-----------------|-----------------|
|-7-7-7-7-7-7-7-7--5-3-|-2-2-2-2-2-2-2-2-|-1-1-1-1-1-1-1-1-|

|--------------------|
|--------------------|
|0-0-0-0-0-0-0-0-0-0-|
|--------------------|

Добавлено: 01.04.2012
Другие материалы по этой песне:
  • Аккорды и текст

Страница создана 01.04.2012
http://primanota.ru/luca-turilli/angels-of-the-winter-dawn-chords.htm
Привет, Гость.
Предлагаем пройти революционный курс по гитаре.
Подарок от PrimaNota.Ru, забирай!