PrimaNota.ru - самый крупный в мире бесплатный архив песенных текстов, аккордов, табулатур и нот


Luc - W Związku Z Tym - таба, видео

Регистрация Запомнить меня
Войти через:  Facebook Google Twitter Vk Yandex Mail.ru

Luc - W Związku Z Tym - таба, видео

Печатать
Просмотров: 55
-------------------------------------------------------------------------------
              L.U.C ft. K. Prońko, K2, Mesajah - W ZWIĄZKU Z TYM
-------------------------------------------------------------------------------
Tabbed by:Mateusz Prendki


Tuning:Standard

e|---------------------------------------------------------------------------|
B|----------9----------------------------------9-----------------------------|
G|---------10-10---------------10-------------10--10--------------9----------|
D|----10--10------------------11--11-----10--10------------------10--10------|
A|-8---------------------11--11-------8---------------------10--10-----------|
E|-----------------9--9-------------------------------8--8-------------------|


************************************

| /   slide up
| \   slide down
| h   hammer-on
| p   pull-off
| ~   vibrato
| +   harmonic
| x   Mute note
| b   Bend
| pb  Pre-bend
| br  Bend release
| pbr Pre-bend release
| brb Bend release bend

************************************
Добавлено: 31.07.2015
Другие материалы по этой песне:
  • Аккорды и текст

Страница создана 31.07.2015
http://primanota.ru/luc/w-zwiazku-z-tym-chords.htm
Привет, Гость.
Предлагаем пройти революционный курс по гитаре.
Подарок от PrimaNota.Ru, забирай!