PrimaNota.ru - самый крупный в мире бесплатный архив песенных текстов, аккордов, табулатур и нот


Lsu - Blame - таба, видео

Регистрация Запомнить меня
Войти через:  Facebook Google Twitter Vk Yandex Mail.ru

Lsu - Blame - таба, видео

Печатать
Просмотров: 77
		   Blame
Mike Knott
L.S.U.
Grace Shaker

Intro:
riff1-riff2 (simultaneous)
Am   G   D

Am              G                         D
I'll pick you up when you go down
Am                 G                 D
I'll fight your battles every time
Am              G                        D
I'll ride with you to bring you round
Am                 G                          D
Though the doubts form in your mind


(riff1 and riff2 simultaneous)
                     Am   G   D 
I'll take the blame

Am            G                            D
so if your mind hurts from this sound
Am                    G                     D
and you can't see beyond this wall
Am               G                      D
forget that heavy load right now
Am             G                         D
I'll be the one who'll take the fall


(riff1 and riff3 simultaneous)
                    Am    G   D  (4x)
I'll take the blame
C                D     C
away right now

Am                    G                 D
I'll show you heaven in this town
Am                   G                            D
You'll have to love more than you know
Am              G                      D
but when it all starts to fall down
Am              G                   D
just trust in me and I will show you


(riff1, riff2, and riff 3 simultaneous)
                   Am   G   D  (4x)
I'll take the blame



riff1
----8--7--7--5--5--3--5---------8--7--7--5--5--3--5--(10)---
----------------------------------3----------------------------------------
----------------------------------------------------------------------------
----------------------------------------------------------------------------
----------------------------------------------------------------------------
----------------------------------------------------------------------------


riff2
-------------------------------------------------------------------------
----5--3--3--1--1--0------------5--3--3--1--1--0--3---------
-----------------------------2------------------------------------------
---------------------------------0--------------------------------------
-------------------------------------------------------------------------
-------------------------------------------------------------------------


riff 3
------------------------------------------------------------------
------------------------------------------------------------------
----10--9--7--5----------------------------------------------
-----------------------5-----------------------------------------
------------------------------------------------------------------
------------------------------------------------------------------

     
Добавлено: 26.08.2013
Другие материалы по этой песне:
  • Аккорды и текст

Страница создана 26.08.2013
http://primanota.ru/lsu/blame-chords.htm
Привет, Гость.
Предлагаем пройти революционный курс по гитаре.
Подарок от PrimaNota.Ru, забирай!