PrimaNota.ru - самый крупный в мире бесплатный архив песенных текстов, аккордов, табулатур и нот


Lowlow - Sfoghi Di Una Vita Complicata Part 3 - таба, видео

Регистрация Запомнить меня
Войти через:  Facebook Google Twitter Vk Yandex Mail.ru

Lowlow - Sfoghi Di Una Vita Complicata Part 3 - таба, видео

Печатать
Просмотров: 63
-------------------------------------------------------------------------------
                Sfoghi di una vita complicata pt.3 - LowLow
-------------------------------------------------------------------------------
Tabbed by: Vincenzo Sagristano
E-mail: vince.sagristano@yahoo.it

Tuning: Standard

e|---------------------------------------------------------------------------|
B|--2--5--4--5--7--4--4--4--2--5--4--2-----------2--5--4--5--7--4--4--4--2--5|
G|--------------------------------------1--2--4------------------------------|
D|---------------------------------------------------------------------------|
A|---------------------------------------------------------------------------|
E|---------------------------------------------------------------------------|

e|---------------------------------------------------------------------------|
B|--4--2-----------2---------------------------------------------------------|
G|--------1--2--4------------------------------------------------------------|
D|---------------------------------------------------------------------------|
A|---------------------------------------------------------------------------|
E|---------------------------------------------------------------------------|
Добавлено: 23.11.2015
Другие материалы по этой песне:
  • Аккорды и текст

Страница создана 23.11.2015
http://primanota.ru/lowlow/sfoghi-di-una-vita-complicata-part-3-chords.htm
Привет, Гость.
Предлагаем пройти революционный курс по гитаре.
Подарок от PrimaNota.Ru, забирай!