PrimaNota.ru - самый крупный в мире бесплатный архив песенных текстов, аккордов, табулатур и нот


Lower Than Atlantis - Taping Songs Off The Radio - текст песни, таба, бас-таба, видео

Регистрация Запомнить меня
Войти через:  Facebook Google Twitter Vk Yandex Mail.ru

Lower Than Atlantis - Taping Songs Off The Radio - текст песни, таба, бас-таба, видео

Печатать
Просмотров: 146
-------------------------------------------------------------------------------
              Taping Songs Off The Radio - Lower Than Atlantis
-------------------------------------------------------------------------------

This is my first tab it's only for the rhythm section/playing it on your own, I used the music video and 
this guy's cover (www.youtube.com/watch?v=z36kyTtF59w) to help me tab this. The verses and choruses differ
slightly from each other which is why I've tabbed them as Verse/Chorus 1 and Verse/Chorus 2.


Tuning:DADGBe

Intro:
e|-----------------------------------------------------------------|
B|-----------------------------------------------------------------|
G|-----------------------------------------------------------------|   x2
D|---4-4-4-4-4-4-4-4--0-0-0--2-2-2-4-4-4-4-4-4-4-4--0-0-0----------|
A|---4-4-4-4-4-4-4-4--0-0-0--2-2-2-4-4-4-4-4-4-4-4--0-0-0----------|
D|---4-4-4-4-4-4-4-4--0-0-0--2-2-2-4-4-4-4-4-4-4-4--0-0-0----------|
P.M. . . . . . . . .  . . .  . . . . . . . . . . .  . . . 

Then

e|----------------------------------------------------------------|
B|----------------------------------------------------------------|
G|--------------------------------------------------2-2-2---------|
D|---4-4-4-4-4-4-4-4--0-0-0--2-2-2-4-4-4-4-4-4-4-4--2-2-2---------|
A|---4-4-4-4-4-4-4-4--0-0-0--2-2-2-4-4-4-4-4-4-4-4--0-0-0---------|
D|---4-4-4-4-4-4-4-4--0-0-0--2-2-2-4-4-4-4-4-4-4-4----------------|

e|-----------------------------------------------------------------------|
B|-----------------------------------------------------------------------|
G|-----------------------------------------------------------------------|
D|---2-2-2-4-4-4-4-4-4-4-4--0-0-0--2-2-2-4-4-4-4-4-4-4-4--3b--3b---------|
A|---2-2-2-4-4-4-4-4-4-4-4--0-0-0--2-2-2-4-4-4-4-4-4-4-4--3b--3b---------|
D|---2-2-2-4-4-4-4-4-4-4-4--0-0-0--2-2-2-4-4-4-4-4-4-4-4--3b--3b---------|

         D|---2------------4---|
Playing: A|---4 instead of 4---| also sounds good here 
         D|---4------------4---|

Verse 1:
e|-----------------------------------------------------------------------|
B|-----------------------------------------------------------------------|
G|--------------------------------------------------2-2-2----------------|
D|---4-4-4-4-4-4-4-4--0-0-0--2-2-2-4-4-4-4-4-4-4-4--2-2-2----------------|
A|---4-4-4-4-4-4-4-4--0-0-0--2-2-2-4-4-4-4-4-4-4-4--0-0-0----------------|
D|---4-4-4-4-4-4-4-4--0-0-0--2-2-2-4-4-4-4-4-4-4-4-----------------------|
P.M. . . . . . . . .  . . .  . . . . . . . . . . .  . . . 

e|-----------------------------------------------------------------------|
B|-----------------------------------------------------------------------|
G|-----------------------------------------------------------------------|
D|---2-2-2-4-4-4-4-4-4-4-4--0-0-0--2-2-2-4-4-4-4-4-4-4-4--3b--3b---------|
A|---2-2-2-4-4-4-4-4-4-4-4--0-0-0--2-2-2-4-4-4-4-4-4-4-4--3b--3b---------|
D|---2-2-2-4-4-4-4-4-4-4-4--0-0-0--2-2-2-4-4-4-4-4-4-4-4--3b--3b---------|
P.M. . . . . . . . . . . .  . . .  . . . . . . . . . . .

e|-----------------------------------------------------------------------|
B|-----------------------------------------------------------------------|
G|-----------------------------------------------------------------------|
D|---4-4-4-4-4-4-4-4--0-0-0--2-2-2-4-4-4-4-4-4-4-4-----------------------|
A|---4-4-4-4-4-4-4-4--0-0-0--2-2-2-4-4-4-4-4-4-4-4-----------------------|
D|---4-4-4-4-4-4-4-4--0-0-0--2-2-2-4-4-4-4-4-4-4-4-----------------------|
P.M. . . . . . . . .  . . .  . . . . . . . . . . . 

e|-----------------------------------------------------------------------|
B|-----------------------------------------------------------------------|
G|-----------------------------------------------------------------------|
D|---2-2-2-4-4-4-4-4-4-4-4--0-0-0--2-2-2-4-4-4-4-4-4-4-4-----------------|
A|---2-2-2-4-4-4-4-4-4-4-4--0-0-0--2-2-2-4-4-4-4-4-4-4-4--2-3-2----------|
D|---2-2-2-4-4-4-4-4-4-4-4--0-0-0--2-2-2-4-4-4-4-4-4-4-4--------4-3-2-1-0|
P.M. . . . . . . . . . . .  . . .  . . . . . . . . . . .

Chorus 1:
e|--This is how I play it on my own to sound more like the record-----------------------------------------|
B|--------------------v                    v--------------------------------------------------------------|
G|--------4--4-4-4-4--6--6-6-6--6--6-6-4-4-4---------4--4-4-4-4-------------------------------------------|
D|-0--0-0-2--2-2-2-2--4--4-4-4--2--2-2-2-2-2--0--0-0-2--2-2-2-2--7--7-7-7--9--9--9-9-9-9-
Добавлено: 20.10.2014
Другие материалы по этой песне:
  • Аккорды и текст

Страница создана 27.04.2012
http://primanota.ru/lower-than-atlantis/taping-songs-off-the-radio-chords.htm
Привет, Гость.
Предлагаем пройти революционный курс по гитаре.
Подарок от PrimaNota.Ru, забирай!