PrimaNota.ru - самый крупный в мире бесплатный архив песенных текстов, аккордов, табулатур и нот


Lower Than Atlantis - Love - таба, видео

Регистрация Запомнить меня
Войти через:  Facebook Google Twitter Vk Yandex Mail.ru

Lower Than Atlantis - Love - таба, видео

Печатать
Просмотров: 121
(Intro)
--------------------------------------------------------|
--------------------------------------------------------|
--------------------------------------------------------|
-----0----9--9---3--3----5--5---8---8----1--1-----0-----|
-----0----9--9---3--3----5--5---8---8----1--1-----0-----|
-----0----9--9---3--3----5--5---8---8----1--1-----0-----|

----------------------------------------------------------|--------------|
----------------------------------------------------------|--------------|
------------------------------------------------------- o-|--------------|
-----0----9--9---3--3----5--5---8---8----11--11----0--o---|---xx-xxx-x---|
-----0----9--9---3--3----5--5---8---8----11--11----0------|---xx-xxx-x---|
-----0----9--9---3--3----5--5---8---8----11--11----0------|---xx-xxx-x---|

(Verse 1)

 (Gradually bend B string (fret 3) up and back down again)
-------------2------2------2--------2-------2-------2-------2-------2------------|
---------3------3------3-------3-------3--------3------3-------3-----------------|
---------------------------------------------------------------------------------|
---------------------------------------------------------------------------------|
---------------------------------------------------------------------------------|
---------------------------------------------------------------------------------|

(Intro part again)
----------------------------------------------------------|
----------------------------------------------------------|
--------------------------------------------------------o-|
-----0----9--9---3--3----5--5---8---8----11--11----0------|
-----0----9--9---3--3----5--5---8---8----11--11----0--- o-|
-----0----9--9---3--3----5--5---8---8----11--11----0------|


(Chorus)
--------------------------------------------------------------------------------|
--------------------------------------------------------------------------------|
-------2--------------5-------------7----------10---------10--------------------|
-------0---x16--------4--x16--------5--x16-----8--x8------9---x8----------------|       x2
-------0--------------3-------------5----------8----------9---------------------|
-------0--------------4-------------5----------8----------0---------------------|

(Verse 2)
Play Intro part once again then:

---3--------------------------------|
---2--------------------------------|
---3--------------------------------|
---0--------------------------------|
---0--------------------------------|
---0------------------------0\------|
                              (Pick slide)

-------------------------------------------------------|
-------------------------------------------------------|
-------------------------------------------------------|
-----0----9--9---3--3----5--5---8---8----1--1-----0----|
-----0----9--9---3--3----5--5---8---8----1--1-----0----|
-----0----9--9---3--3----5--5---8---8----1--1-----0----|

------------------------------------------------------------------|
------------------------------------------------------------------|
------------------------------------------------------------------|
-----0----9--9---3--3----5--5---x-x---x--x---x---x--x-------------|
-----0----9--9---3--3----5--5---x-x---x--x---x---x--x-------------|
-----0----9--9---3--3----5--5---x-x---x--x---x---x--x-------------|

------------------------------------------------------------------------------------|
--------------------------------------------------------------2---------------------|
--------------------------------------------------------------3-----2-2-2-2--4-4-4--|
-----0----9--9---3--3----5--5---8---8----1--1-----0--0------------------------------|
-----0----9--9---3--3----5--5---8---8----1--1-----0--0------------------------------|
-----0----9--9---3--3----5--5---8---8----1--1-----0--0------------------------------|

Chorus part again then:

(Listen to song for rhythm)
-------1-----2----------------------------|
----3--3--3--3----------------------------|
-------------------2-2-2---4-4-4----------|
------------------------------------------|
------------------------------------------|
------------------------------------------|

Chorus part again then

----------------------------------------------------------------3-------|
----------------------------------------------------------------2-------|
----------------------------------------------------------------3-------|
-----0----9--9---3--3----5--5---8---8----1--1-----0----0-------0--------|
-----0----9--9---3--3----5--5---8---8----1--1-----0----0-------0--------|
-----0----9--9---3--3----5--5---8---8----1--1-----0----0-------0--------|
Добавлено: 23.11.2013
Другие материалы по этой песне:
  • Аккорды и текст

Страница создана 19.06.2013
http://primanota.ru/lower-than-atlantis/love-chords.htm
Привет, Гость.
Предлагаем пройти революционный курс по гитаре.
Подарок от PrimaNota.Ru, забирай!