PrimaNota.ru - самый крупный в мире бесплатный архив песенных текстов, аккордов, табулатур и нот


Lower Than Atlantis - Just What You Need - таба, видео

Регистрация Запомнить меня
Войти через:  Facebook Google Twitter Vk Yandex Mail.ru

Lower Than Atlantis - Just What You Need - таба, видео

Печатать
Просмотров: 140
Уроки эстрадного вокала в Санкт-Петербурге
-------------------------------------------------------------------------------
                             Just What You Need - Lower Than Atlantis
-------------------------------------------------------------------------------
Tabbed by: Nathan Pendery
E-mail: n.pendery@yahoo.com

Tuning: Drop D - DADGBe

e|---------------------------|---------------------------|---------------------------|
B|---------------------------|-----------3h4p3---3-----3-|---------------------------|
G|-----------3h5p3-0h3p0-----|-----------------5---3h5---|-----------3h5p3-0h3p0-----|
D|-----0h3-5-------------3h5-|-----0h3-5-----------------|-----0h3-5-------------3h5-|
A|---------------------------|---------------------------|---------------------------|
D|-1/5-----------------------|-3/5-----------------------|--1------------------------|

e|--------------------|
B|--------------------|
G|----------5/777\555-|
D|----0h3-5-3/555\333-|
A|--------------------|
D|--3-----------------|


************************************

| /   slide up
| \   slide down
| h   hammer-on
| p   pull-off

************************************
Добавлено: 03.11.2014
Другие материалы по этой песне:
  • Аккорды и текст

Страница создана 21.10.2014
http://primanota.ru/lower-than-atlantis/just-what-you-need-chords.htm
Привет, Гость.
Предлагаем пройти революционный курс по гитаре.
Подарок от PrimaNota.Ru, забирай!