PrimaNota.ru - самый крупный в мире бесплатный архив песенных текстов, аккордов, табулатур и нот


Lower Than Atlantis - Here We Go - таба, бас-таба, видео

Регистрация Запомнить меня
Войти через:  Facebook Google Twitter Vk Yandex Mail.ru

Lower Than Atlantis - Here We Go - таба, бас-таба, видео

Печатать
Просмотров: 110
Hi! Here's a cover using this tab; https://www.youtube.com/watch?v=KbsbYIp0rak.

All credit goes to Shane (dude in the video... I'm not Shane) for tabbing this. Not so sure on the tuning;
it's either drop C or D... Have a look on YouTube they'll probably know.

Also this is the first time i upload so if anything's wrong I apologize. Please support the band and buy their
album :)

|--0---00---0---00--0-0-----0---00---0---00--0-0---
|--------------------------------------------------
|--------------------------------------------------
|--------------------------------------------------
|--------------------------------------------------
|--------------------------------------------------

** ** ** **
|--0---00---0---00--0-0-----0---00---0---00--0-0---
|--0---00---0---00--0-0-----0---00---0---00--0-0---
|--------------------------------------------------
|--------------------------------------------------
|--------------------------------------------------
|--------------------------------------------------

** ** ** **
|--0---00---0---00--0-0-----0---00---0---00--0-0---
|--0---00---0---00--0-0-----0---00---0---00--0-0---
|--------------------------------------------------
|--------------------------------------------------
|--------------------------------------------------
|--------------------------------------------------

** ** ** **
|--0---00---0---00--0-0--5-3-5-------5-3-0---00---0---00--0-0---
|--0---00---0---00--0-0--------0-2b^-----0---00---0---00--0-0---
|---------------------------------------------------------------
|---------------------------------------------------------------
|---------------------------------------------------------------
|---------------------------------------------------------------

** ** ** ** **
|--0---00---0-0---00--0-0--00---5-3-5-------5-3--0---00---0-0---00--0-0--00-----------------
|--0---00---0-0---00--0-0--00---------0-2b^------0---00---0-0---00--0-0--00--5-3-5-------5-3
|----------------------------------------------------------------------------------4-5-4----
|------------------------------------------------------------------------------------------- X2
|-------------------------------------------------------------------------------------------
|-------------------------------------------------------------------------------------------

Chorus - just listen for the strumming pattern

|-0---10---5-----0--7---8----10--------------------
|-0---10---5-----0--7---8----10--------------------
|-0---10---5-----0--7---8----10--------------------
|-----12---7--------10--10---12--------------------
|--------------------------------------------------
|--------------------------------------------------


|--0---0-0---0---0-0--0--00---00---00---00-----------0---0-0---0---0-0--0--00---00---00---00---------
|--0---0-0---0---0-0--0----3h5--3h5--3h5--3h5--------0---0-0---0---0-0--0----3h5--3h5--3h5---5-------
|-------------------------------------------------------------------------------------------3--------
|----------------------------------------------------------------------------------------------------
|----------------------------------------------------------------------------------------------------
|----------------------------------------------------------------------------------------------------

(Bass only for a few bars)


** ** ** **
|--0---00---0---00--0-0--5-3-5-------5-3-0---00---0---00--0-0---
|--0---00---0---00--0-0--------0-2b^-----0---00---0---00--0-0---
|---------------------------------------------------------------
|---------------------------------------------------------------
|---------------------------------------------------------------
|---------------------------------------------------------------


** ** ** ** **
|--0---00---0-0---00--0-0--00---5-3-5-------5-3--0---00---0-0---00--0-0--00-----------------
|--0---00---0-0---00--0-0--00---------0-2b^------0---00---0-0---00--0-0--00--5-3-5-------5-3
|----------------------------------------------------------------------------------4-5-4----
|------------------------------------------------------------------------------------------- X2
|-------------------------------------------------------------------------------------------
|-------------------------------------------------------------------------------------------


|--0---0-0---0---0-0--0--00---00---00---00-----------0---0-0---0---0-0--0--00---00---00---00---------
|--0---0-0---0---0-0--0----3h5--3h5--3h5--3h5--------0---0-0---0---0-0--0----3h5--3h5--3h5---5-------
|-------------------------------------------------------------------------------------------3--------
|----------------------------------------------------------------------------------------------------
|----------------------------------------------------------------------------------------------------
|----------------------------------------------------------------------------------------------------


All notes here are doubled, just listen to the song and you'll understand.
|-----------------------------------------------------------
|--------------------------------------------------12-1212--
|-------10-12-------10-12-------10-12---------12-9----------
|-12-11-------12-11-------12-11-------12-11-9---------------
|-----------------------------------------------------------
|-----------------------------------------------------------

|------------------------------------------------10-12------
|------------------------------------------10-12------------
|-------10-12-------10-12-------10-12-10-9------------------
|-12-11-------12-11-------10-9------------------------------
|-----------------------------------------------------------
|-----------------------------------------------------------


** ** ** **
|--0---00---0---00--0-0-----0---00---0---00--0-0---
|--------------------------------------------------
|--------------------------------------------------
|--------------------------------------------------
|--------------------------------------------------
|--------------------------------------------------


Chorus

|-0---10---5-----0--7---8----10--------------------
|-0---10---5-----0--7---8----10--------------------
|-0---10---5-----0--7---8----10--------------------
|-----12---7--------10--10---12--------------------
|--------------------------------------------------
|--------------------------------------------------

Outro 

|--0---0-0---0---0-0--0--00---00---00---00-----------0---0-0---0---0-0--0--00---00---00---00---------
|--0---0-0---0---0-0--0----3h5--3h5--3h5--3h5--------0---0-0---0---0-0--0----3h5--3h5--3h5---5-------
|-------------------------------------------------------------------------------------------3--------
|----------------------------------------------------------------------------------------------------
|----------------------------------------------------------------------------------------------------
|----------------------------------------------------------------------------------------------------

Добавлено: 30.08.2014
Другие материалы по этой песне:

Страница создана 30.08.2014
http://primanota.ru/lower-than-atlantis/here-we-go-chords.htm
Привет, Гость.
Предлагаем пройти революционный курс по гитаре.
Подарок от PrimaNota.Ru, забирай!