PrimaNota.ru - самый крупный в мире бесплатный архив песенных текстов, аккордов, табулатур и нот


Lower Class Brats - Insult To Injury - таба, видео

Регистрация Запомнить меня
Войти через:  Facebook Google Twitter Vk Yandex Mail.ru

Lower Class Brats - Insult To Injury - таба, видео

Печатать
Просмотров: 137
                             Insult to Injury
                             Lower Class Brats

Intro
e|--------------------|
B|--------------------|
G|-11111111-4444-6666-|
D|-22222222-5555-7777-|
A|-22222222-5555-7777-|
E|-00000000-3333-5555-|
pm ........ .... ....

Verse
e|-----------------------------|
B|-----------------------------|
G|-1-1111-1-1111-4-4444-6-6666-|
D|-2-2222-2-2222-5-5555-7-7777-|
A|-2-2222-2-2222-5-5555-7-7777-|
E|-0-0000-0-0000-3-3333-5-5555-|

Pre-Chorus
e|---------------------------|
B|--------------5555-55-7-77-|
G|-6666-66-6-66-5555-55-7-77-|
D|-7777-77-7-77-5555-55-7-77-|
A|-7777-77-7-77-3333-33-5-55-|
E|-5555-55-5-55--------------|

Chorus
e|----------------------------------------------------------|
B|-9999-99-9-99--7-7777-x---------7-------------------------|
G|-9999-99-9-99--7-7777-x-66-6666-7-6-6666-6-66--8-8888-6-8-|
D|-9999-99-9-99--7-7777-x-77-7777-7-7-7777-7-77--9-9999-7-9-|
A|-7777-77-7-77--5-5555-x-77-7777-5-7-7777-7-77--9-9999-7-9-|
E|----------------------x-55-5555---5-5555-5-55--7-7777-5-7-|

Solo
e|-3-0-----3-0-----3-0-----3-0---6-3-----6-3----8-5-----8-5--------------|
B|-----3-0-----3-0-----3-0-----3-----6-3-----6-3----8-5-----8------------|
G|-----------------------------------------------------------------------|
D|-----------------------------------------------------------------------|
A|-----------------------------------------------------------------------|
E|-----------------------------------------------------------------------|


ORDER

Intro(x4)
Verse(x4)
Pre-Chorus
Chorus(x2)
Verse(x4)
Pre-Chorus
Chorus (x2)
Verse/Solo(x4)
Pre-Chorus
Chorus(x2)--No Guitar
Chorus(x4)


KEY

pm = Palm mute
x  = Mute
Добавлено: 06.04.2012
Другие материалы по этой песне:

Страница создана 06.04.2012
http://primanota.ru/lower-class-brats/insult-to-injury-chords.htm
Привет, Гость.
Предлагаем пройти революционный курс по гитаре.
Подарок от PrimaNota.Ru, забирай!