PrimaNota.ru - самый крупный в мире бесплатный архив песенных текстов, аккордов, табулатур и нот


Lowbuz - On The Ledge - таба, видео

Регистрация Запомнить меня
Войти через:  Facebook Google Twitter Vk Yandex Mail.ru

Lowbuz - On The Ledge - таба, видео

Печатать
Просмотров: 705
Уроки эстрадного вокала в Санкт-Петербурге
Lowbuz – On the ledge
Tuning – Drop C (DAFCGC)
--------------------------------------------------------------------------
I think that 1 guitar play PM(Palm Mute) part
2 guitar play without palm mute!

b - bend
. . . . - Palm Mute
/ - slide up
\ - slide down
h - hammer on
p - pull off

----------------------------
Update!I think better play this song in Db tuning!


Intro  (Repeat 2 times)
D-------------------------------------------------------------|
A-------------------------------------------------------------|
F-------------------------------------------------------------|
C-1--1--1--1-----8-----------11--11---6--6--------------------| (x3)
G-1--1--1--1--------------------------------------------------|
C-1--1--1--1--------1--1--1---------1-------------------------|
  .  .  .  .        .  .  .         .

D-----------------------------------------------------------|
A-----------------------------------------------------------|
F-----------------------------------------------------------|
C--1--1--1--1----------8---------4---2----------------------| (x1)
G--1--1--1--1--------------------4---2----------------------|
C--1--1--1--1---------------1----4---2----------------------|
   .  .  .  .               .


Verse

D-------------------------------------------------------------|
A-------------------------------------------------------------|
F-------------------------------------------------------------|
C-1--1--1--1-----8--------------11--11---6--6-----------------| (x3)
G-1--1--1--1--------------------------------------------------|
C-1--1--1--1--------1--1--1------------1----------------------|

PM ................................................................

D-----------------------------------------------------------|
A-----------------------------------------------------------|
F-----------------------------------------------------------|
C--1--1--1--1---------8----------4---2----------------------| (x1)
G--1--1--1--1--------------------4---2----------------------|
C--1--1--1--1---------------1----4---2----------------------|

PM..............................


Chorus

D--------------------------------------------------------------------------|
A--------------------------------------------------------------------------|
F--------------------------------------------------------------------------|
C-1-1----4--4----6------------1--1-----4-4-4-4--9-9--9--9--8---------------|
G-1-1----4--4----6--(x2)------1--1-----4-4-4-4--9-9--9--9--8--(x1)---------|
C-1-1----4--4----6------------1--1-----4-4-4-4--9-9--9--9--8---------------|

Bridge
(1 Guitar)
D--------------------------------------------------------------------------|
A--------------------------------------------------------------------------|
F--------------------------------------------------------------------------|
C---4-4-4-4------4-4-4-4------4-4-4-4-4-4-4-4-----4-4-4-4------4-----------|
G---4-4-4-4--4---4-4-4-4--4---4-4-4-4-4-4-4-4--4--4-4-4-4------4-----------|
C---4-4-4-4------4-4-4-4------4-4-4-4-4-4-4-4-----4-4-4-4------4-----------|
    . . . .      . . . .      . . . . . . . .     . . . .


D--------------------------------------------------------------------------|
A--------------------------------------------------------------------------|
F--------------------------------------------------------------------------|
C---4-4-4-4------4-4-4-4------4-4-4-4-4-4-4-4-----4-4-4-4------4--2--------|
G---4-4-4-4--4---4-4-4-4--4---4-4-4-4-4-4-4-4--4--4-4-4-4------4--2--------|
C---4-4-4-4------4-4-4-4------4-4-4-4-4-4-4-4-----4-4-4-4------4--2--------|
    . . . .      . . . .      . . . . . . . .     . . . .

(2 guitar)
Wah-wah pedal
D--------------------------------------------------------------------------|
A-12b--14-11-14-11-14-11-14-11---------------------------------------------|
F-------------------------------11-11h13-11h13-11h13-11h13-11h13-15b-18b20-|
C--------------------------------------------------------------------------|
G--------------------------------------------------------------------------|
C--------------------------------------------------------------------------|

Outro solo
(Wah-Wah pedal)
2:49 - 2:52
D--------------------------------------------------------------------------|
A--------------------------------------------------------------------------|
F---/14--13h14-13--11--13--9--11b------------------------------------------|
C--------------------------------------------------------------------------|
G--------------------------------------------------------------------------|
C--------------------------------------------------------------------------|

2:52 - 2:54
D--------------------------------------------------------------------------|
A--------(Please check amount of strokes here!)----------------------------|
F15-18p15h18p15h18p15h18p15h18p15h18p15h18p15h18p15------------------------|
C--------------------------------------------------------------------------|
G--------------------------------------------------------------------------|
C--------------------------------------------------------------------------|
2:54 - 2:57
D--------------------------------------------------------------------------|
A--------------------------------------------------------------------------|
F--19b20----19h20-20-20-19-18-19b-19b-19b----------------------------------|
C--------------------------------------------------------------------------|
G--------------------------------------------------------------------------|
C--------------------------------------------------------------------------|

2:58 - 3:01
D-----------------------------------------|
A-/20b-14-/19h20p19h20p19-18p17h18p17-19--|
F-----------------------------------------|
C-----------------------------------------|
G-----------------------------------------|
C-----------------------------------------|

3:01-3:03
D-----------------------------------------|
A------/16-17-16-14h15-17p16h17p16/14b----|
F-----------------------------------------|
C-----------------------------------------|
G-----------------------------------------|
C-----------------------------------------|

3:03 - To the end
D--------------------------------------------------------------------------|
A-/-14-15-14-12-14-14h15/14-16/--------------------------------------------|
F--------------------------------------------------------------------------|
C--------------------------------------------------------------------------|
G--------------------------------------------------------------------------|
C--------------------------------------------------------------------------|


Lyrics:
If I could turn back this time
You would see what's inside
Your eyes to me are like a mirror
It swirls inside of my mind
There's just so much on the line
Is honesty always the answer now?

Chorus:
I'm on the ledge
Can't fall down
See me on the edge
I'm on the ledge
Breaking down
See me on the edge

I know that I just can't hide
I gamble just let it ride
It's much too hard to turn away
It's all such a surprise
I can tell it all from your eyes
It's all I can do to keep my head up now.

Chorus:
I'm on the ledge
Can't fall down
See me on the edge
I'm on the ledge
Breaking down
See me on the edge

I'm on the ...I'm on the...I'm on the...LEDGE
Добавлено: 18.07.2012
Другие материалы по этой песне:
  • Аккорды и текст

Страница создана 18.07.2012
http://primanota.ru/lowbuz/on-the-ledge-chords.htm
Привет, Гость.
Предлагаем пройти революционный курс по гитаре.
Подарок от PrimaNota.Ru, забирай!