PrimaNota.ru - самый крупный в мире бесплатный архив песенных текстов, аккордов, табулатур и нот


Low - Shame - таба, видео

Регистрация Запомнить меня
Войти через:  Facebook Google Twitter Vk Yandex Mail.ru

Low - Shame - таба, видео

Печатать
Просмотров: 111
Transcription 
to "Shame" by Low
Album: Long Division 
Label: Vernon Yard 
Recordings
Release Year: 1995
By Peter Rasmussen 
(peterjrasmussen@hotmail.com)


Key: This song was recorded in the key of E 
flat.  I have transcribed it in E
assuming they were tuned down to 
E-Flat.

Effects:  Reverb and light echo with only one repeat

Capo guitar 
on the 4th fret.

First Chord:  Emaj7                  

E-----------------|
B-------4---------|
G-----4-----------|
D---6-------------|
A-----------------|
E-7---------------|


Second 
Chord:  Amaj7                  

E-------4---------|
B-----5-----------|
G-----------------|
D---7-------------|
A-----------------|
E-5---------------|


Lead 
Line

E----12---12---12-|--12---9--9--9---|--9--11--11--11--|-11--------------
B-----------------|-----------------|-----------------|-----9---9---9---
G-----------------|-----------------|-----------------|-----------------
D-----------------|-----------------|-----------------|-----------------
A-----------------|-----------------|-----------------|-----------------
E-----------------|-----------------|-----------------|-----------------


Bass 
part:
First Chord:  Emaj7                  

G-----------------|-----------------|-----------------|-----------------
D-----------------|-----------------|-----------------|-----------------
A--------6-6------|-----------------|-----------------|-----------------
E-------------7---|-0---------------|-----------------|-----------------

Second 
Chord:  Amaj7                  

G-----------------|-----------------|-----------------|-----------------
D--------6-6------|-----------------|-----------------|-----------------
A-------------7---|-0---------------|-----------------|-----------------
E-----------------|-----------------|-----------------|-----------------



The 
Song:

(Chord 1 twice, without bass)
(Chord 1 twice, bass begins)

(Lead 
line 4 times)

(Chord 1 twice)

Emaj7
a long ...

Emaj7
you 
thought ...

Amaj7       Emaj7
shame of it all


Emaj7
the harm 

Emaj7
pours ...

Amaj7       Emaj7
shame of 
it all

Amaj7       Emaj7
shame of it all

(Lead line 8 times)
     
Добавлено: 21.06.2013
Другие материалы по этой песне:
  • Аккорды и текст

Страница создана 21.06.2013
http://primanota.ru/low/shame-chords.htm
Привет, Гость.
Предлагаем пройти революционный курс по гитаре.
Подарок от PrimaNota.Ru, забирай!