PrimaNota.ru - самый крупный в мире бесплатный архив песенных текстов, аккордов, табулатур и нот


Low Skies - This Is Where Youll Be Staying - бас-таба, видео

Регистрация Запомнить меня
Войти через:  Facebook Google Twitter Vk Yandex Mail.ru

Low Skies - This Is Where Youll Be Staying - бас-таба, видео

Печатать
Просмотров: 68
Low Skies
This is Where You'll be Staying
from "The Bed"
Transcribed by Benjamin Hockenberry
rabbitrevolution@hotmail.com


A descending walk, 0:30
                               |-3-|                             |-3| |-3-|
-----------------|-------------------|-----------------|--------------------
-------5---------|-----------------5-|-7-----5---------|------------------5-
-----------8---7-|-5---------5-7-8---|-----------8-----|-5---5---5----5-8---
-5---------------|-------------------|---------------7-|------------7-------


B Heavy Walking, 1:42
-----------------|-----------------|
-----------------|-------------5---|
-------------7---|-5---7---8-------|
-5---7---8-------|-----------------|

C slow, 2:10
|-----------------|-----------------|
|-----------------|-----------------|
|-----------------|-5---------------|
|-5---------------|-----------------|

then riff A @ 2:30

D Solo with organ, 3:09
|-----------------|-------------------|------------------|------------------
|------------12---|---10--------------|------------------|------------------
|-----------------|----------12-------|-------------10---|---13-----12------
|-----------------|-------------------|------------------|------------------

E mellow, 4:25
|----------------|-----------------|----------------|----------------|
|----------------|-----------------|----------------|----------------|
|----------------|-2-4---5---4---4-\-2--------------|----------------|
|-5--------------|-----------------|--------------3-/-5--------------|

pause, drums alone, then riff A to finish the song
     
Добавлено: 04.11.2013
Вам также может быть интересно:
Другие материалы по этой песне:
  • Аккорды и текст

Страница создана 04.11.2013
http://primanota.ru/low-skies/this-is-where-youll-be-staying-chords.htm
Привет, Гость.
Предлагаем пройти революционный курс по гитаре.
Подарок от PrimaNota.Ru, забирай!