PrimaNota.ru - самый крупный в мире бесплатный архив песенных текстов, аккордов, табулатур и нот


Low Skies - Stationary - бас-таба, видео

Регистрация Запомнить меня
Войти через:  Facebook Google Twitter Vk Yandex Mail.ru

Low Skies - Stationary - бас-таба, видео

Печатать
Просмотров: 79
Low Skies
Stationary
from "The Bed"
Transcribed by Benjamin Hockenberry
rabbitrevolution@hotmail.com

3/4 time, 100 bpm

A intro riff
-------------|-------------|---------------|--------------|
-------------|-------------|---------------|--------------|
-------------|-5-----------|----/12---10---|--------------|
-0-----------|-------------|---------------|-10-----------|

no bass for 1st verse

B heavier chorus 0:36
-------------|-------------|-------------|----------------|
-------------|-------------|-------------|----------------|
-7-----------|-7-------7---|-5-----------|-/12---10---9---|
-------------|-------------|-------------|----------------| x3

riff C end of chorus
-------------|--------------|--------------|----------------|
-------------|--------------|--------------|----------------|
-------------|--------------|--------------|-/12---10---9---|
-9-------9---|-9---9h10p9---|-10-----------|----------------|

riff A @ 1:01 until 1:13
no bass for verse again
riff B @ 1:26
riff C @ 1:44 until end
     
Добавлено: 12.10.2013
Вам также может быть интересно:
Другие материалы по этой песне:
  • Аккорды и текст

Страница создана 12.10.2013
http://primanota.ru/low-skies/stationary-chords.htm
Привет, Гость.
Предлагаем пройти революционный курс по гитаре.
Подарок от PrimaNota.Ru, забирай!