PrimaNota.ru - самый крупный в мире бесплатный архив песенных текстов, аккордов, табулатур и нот


Low Cut Connie - Dannys Outta Money - таба, видео

Регистрация Запомнить меня
Войти через:  Facebook Google Twitter Vk Yandex Mail.ru

Low Cut Connie - Dannys Outta Money - таба, видео

Печатать
Просмотров: 83
Danny's Outta Money
by Low Cut Connie. Transcribed by burnmik. 

Intro riff
  E     
e|-----------------------|------------------------|------------------------|
B|-----------------------|------------------------|------------------------|
G|-----------------------|------------------------|------------------------|
D|--2---------2--------2-|--2---------2---------2-|--2---------2---------2-|
A|-----2--4-------2--4---|-----2--4-------2--4----|-----2--4-------2--4----|
E|-----------------------|------------------------|------------------------|

Main/Verse Riff 
  A          B           A       B                  A      G#m F#m   E
e|------|---------------|------|-------------------|------|-4---2----0--|
B|----5-|-----7------5--|----5-|-----7------7---5--|----5-|-4---2----0--|
G|-2----|--4------4-----|-2----|--4------4----4----|-2----|-4---2----1--|
D|------|---------------|------|-------------------|------|-6---4----2--|
A|------|---------------|------|-------------------|------|-6---4----2--|
E|------|---------------|------|-------------------|------|-4---2----0--|


Verse
A                   B          A                   B
He's sittin' on a sofa, eatin' chicken with his hand
A             G#m         F#m          E
Cryin' on his drumsticks like a broken man
A                     B
He used to be a profressor
           A                                B
He's got himself some kind of master's degree
A                   G#m          F#m       E
Now he's a New York bullshitter, just like me


Chorus
A                C#m A                     G#m
Danny's outta money, Danny needs a helping hand
A                          F#              A      E
Danny's outta money, we're breakin' up the band


Verse
    A                      B
The hardest workin' man in show-biz
               A                     B
He's like some kinda sexy guy on the scene
A                       G#m             F#m          E
Lately he's been in the blow biz if you know what I mean
     A                      B                            
He's gonna have to sell his kidney
                  A                           B      
If we don't get no record deal by the end of June
A                  G#m     F#m    E     
He's going back to England pretty soon


Chorus
        A                C#m A                     G#m
'Cause, Danny's outta money, Danny needs a helping hand
A                          F#              A       E  (intro riff)
Danny's outta money, we're breakin' up the band

Spoken break w/main/verse riff


Verse
A                              B
He think's he's a pretty good lover
           A                    B
Well, he's gonna have to be tonight
A                        G#m  F#m  E
Boys and girls want some aftershow delight


Chorus
        A                C#m A                     G#m
'Cause, Danny's outta money, Danny needs a helping hand
 A              C#m  A               C#m  A                C#m A                  C#m 
Danny's outta money, Danny's outta money, Danny's outta money, Danny's outta money,


Solo 
A   C#m - repeat -  pentatonic scale in C#m


Outro
 A                  C#m     
Danny's outta money
 A                      C#m  
Danny needs a helping hand
 A                  C#m     
Danny's outta money
 A                      C#m  
Danny needs a helping hand  - repeat and fade
Добавлено: 19.02.2016
Другие материалы по этой песне:
  • Аккорды и текст

Страница создана 19.02.2016
http://primanota.ru/low-cut-connie/dannys-outta-money-chords.htm
Привет, Гость.
Предлагаем пройти революционный курс по гитаре.
Подарок от PrimaNota.Ru, забирай!