PrimaNota.ru - самый крупный в мире бесплатный архив песенных текстов, аккордов, табулатур и нот


Lovehatehero - You Got Served - таба, видео

Регистрация Запомнить меня
Войти через:  Facebook Google Twitter Vk Yandex Mail.ru

Lovehatehero - You Got Served - таба, видео

Печатать
Просмотров: 89
Artist: LoveHateHero
Song: You Got Served
Album: White Lies
Tuning: Dropped C

Note: the solo's too insane for me to figure out. 
      There are two guitar's. I figured out most of the rhythm, and a little of the lead.

Intro:
|----------------------------------------------------------|
|----------------------------------------------------------|
|----------------------------------------------------------|
|----------------------------------------------------------| x2
|----------------------------------------------------------|
|2--0-2-0-2h3-0-2--0-2-0-2h3-0-2--0-2-0-2h3-0-5--5-0-5--5-0|

Verse:
|-----------------------------------------------------------|
|-----------------------------------------------------------|
|-----------------------------------------------------------|
|3-33-333-5-55-555----5h7-5----5h7-5-8-88-888-10-1010-101010|
|3-33-333-5-55-555-0-0------0-0------8-88-888-10-1010-101010|
|3-33-333-5-55-555-0-0------0-0------8-88-888-10-1010-101010|

|-----------------------------------------------------------------|
|-----------------------------------------------------------------|
|-----------------------------------------------------------------|
|----3-0-2-0-----5-0-3-0-2h3p2-3-33-333-5-55-555----5h7-5----5h7-5|
|0-0---------3-0---------------3-33-333-5-55-555-0-0------0-0-----|
|0-0---------------------------3-33-333-5-55-555-0-0------0-0-----|

|-----------------------------------|
|-----------------------------------|
|-----------------------------------|
|8-88-888-10-1010-101010-33-33-55-55|
|8-88-888-10-1010-101010-33-33-55-55|
|8-88-888-10-1010-101010-33-33-55-55|

Chorus:
|--10----10--------------------------------------------------------------------|
|--13-10-13-10-10--------------------------------------------------------------|
|-----13----13-13--------------------------------------------------------------|
|--------------------------------------------------------------12-10-0-7-0-10-0|
|0----------------5-55-555-555-555-8-88-88x-8-88-88x-8-88-88xx-----------------|
|0----------------5-55-555-555-555-8-88-88x-8-88-88x-8-88-88xx-----------------|

|--------------------------------------------------------------------------------------------------|
|--------------------------------------------------------------------------------------------------|
|--------------------------------------------------------------------------------------------------|
|----------12-10-0-7-0-10-0-----------12-10-0-7-0-10-0-----------------------------12-10-0-7-0-10-0|
|3-33-3333------------------5-55-5555------------------8-88-88x-8-88-88x-8-88-88xx-----------------|
|3-33-3333------------------5-55-5555------------------8-88-88x-8-88-88x-8-88-88xx-----------------|

|---------------------------------------------------------------------------------------|
|---------------------------------------------------------------------------------------|
|---------------------------------------------------------------------------------------|
|----------12-10-0-7-0-10-0-----------12-10-0-7-0-10-0----------------------------------|
|3-33-3333------------------5-55-5555------------------8-88-88x-8-88-88x-8-88-88x-888888|
|3-33-3333------------------5-55-5555------------------8-88-88x-8-88-88x-8-88-88x-888888|

Verse
Chorus

Breakdown:
|-----------------------------|    |---------------------------|
|-----------------------------|    |---------------------------|
|-----------------------------|    |---------------------------|
|-----------------------------| x3 |---------------------------|
|--------------------------3h5|    |--------------------------3|
|0-3-0-0-2-0-0-8-0-7-0-5h7----|    |0-3-0-0-2-0-0-8-0-7-0-5h7--|

Solo:
|----------------|----------------|--------------------------------|
|----------------|----------------|--------------------------------|
|----------------|----------------|--------------------------------|
|7-77-777-777-777|5-55-555-555-555|3-33-333-333-3333-33-333-333-333|
|5-55-555-555-555|3-33-333-333-333|1-11-111-111-1111-11-111-111-111|
|----------------|----------------|--------------------------------|

|----------------|----------------|-----------------------------------------|
|----------------|----------------|-----------------------------------------|
|----------------|----------------|-----------------------------------------|
|7-77-777-777-777|5-55-555-555-555|3-33-333-333-3333-33-333-12-10-0-7-0-10-0|
|5-55-555-555-555|3-33-333-333-333|1-11-111-111-1111-11-111-----------------|
|----------------|----------------|-----------------------------------------|

Final Chorus/Outro: x2
|--------------------------------------------------------------------------------------------------|
|--------------------------------------------------------------------------------------------------|
|--------------------------------------------------------------------------------------------------|
|----------12-10-0-7-0-10-0-----------12-10-0-7-0-10-0-----------------------------12-10-0-7-0-10-0| 
|3-33-3333------------------5-55-5555------------------8-88-88x-8-88-88x-8-88-88xx-----------------|
|3-33-3333------------------5-55-5555------------------8-88-88x-8-88-88x-8-88-88xx-----------------|

|---------|
|---------|
|---------|
|0--------|
|0--------|
|0--------|
Добавлено: 03.04.2012
Другие материалы по этой песне:

Страница создана 21.03.2012
http://primanota.ru/lovehatehero/you-got-served-chords.htm
Привет, Гость.
Предлагаем пройти революционный курс по гитаре.
Подарок от PrimaNota.Ru, забирай!