PrimaNota.ru - самый крупный в мире бесплатный архив песенных текстов, аккордов, табулатур и нот


Lovehatehero - To The End - таба, видео

Регистрация Запомнить меня
Войти через:  Facebook Google Twitter Vk Yandex Mail.ru

Lovehatehero - To The End - таба, видео

Печатать
Просмотров: 133
Уроки эстрадного вокала в Санкт-Петербурге
TO THE END
LOVEHATEHERO
WHITE LIES, 2007

DROP C, CGCFAD
GTR1-LEAD DISTORTED
GTR2-RHYTHM OVERDUB
GTR3-OTHER OVERDUB

INTRO
GTR1
|----------------------------------------|  |-----------------------------------------|
|----------------------------------------|  |-----------------------------------------|
|----------------------------------------|  |-----------------------------------------|
|-----11-12---9---11--------9---------9--|  |-0-0-11-12-0-9--0-11-0-7--0-9--0-6-7-9---|
|-9-9-------9---9----9-12-9---9-11-12----|X2|-----------------------------------------|X2
|----------------------------------------|  |-----------------------------------------|

GTR2
|----------------------------------------|  |-----------------------------------------|
|----------------------------------------|  |-----------------------------------------|
|-----9-11---------9---------------------|  |-----------------------------------------|
|-------------12-------11---12---9-11-12-|  |-0-0-14-16-0-12-0-14-0-11-0-12-0-9-11-12-|
|-9-9-------9----9---9----9----9---------|X2|-----------------------------------------|X2
|----------------------------------------|  |-----------------------------------------|
PLAY INTO TWICE
ON THE SECOND TIME GTR3 ENTERS
GTR3
|-------9-10----------9------------------------|
|---------------12---------10----12----9-10-12-|
|-11-11------11----11---11----11----11---------|
|----------------------------------------------|
|----------------------------------------------|X3
|----------------------------------------------|

                          R  L  L  R  L  L  R  L  L  R  L  L  R  L  L  R 
|-------------------------19-14-17-19-14-17-19-14-17-19-14-17-19-14-17-19-21~-|
|------14-------17------------------------------------------------------------|
|-/11-----11/14----14-16------------------------------------------------------|
|-----------------------------------------------------------------------------|
|-----------------------------------------------------------------------------|
|-----------------------------------------------------------------------------|

VERSE
GTR1
|-------------------------------|-------------------------------|
|-------------------------------|-------------------------------|
|-------------------------------|-------------------------------|
|-4-4-4-4----4-4-4-7-6----------|-4-4-4-4----4-4-4-7-6----------|
|-4-4-4-4----4-4-4-----7--9-9-9-|-4-4-4-4----4-4-4-----7--9-9-9-|
|-4-4-4-4----4-4-4--------------|-4-4-4-4----4-4-4--------------|

|---------------------------------|---------------------------------|
|---------------------------------|---------------------------------|
|---------------------------------|---------------------------------|
|-0-0-0-0---2---4---6---4---6-6-6-|-0-0-0-0---2---4---6---4---6-6-6-|
|-0-0-0---------------------------|-0-0-0---------------------------|
|-0-0-0---0---0---0---0---0-------|-0-0-0---0---0---0---0---0-------|

|-------------------------------|-------------------------------|
|-------------------------------|-------------------------------|
|-------------------------------|-------------------------------|
|-4-4-4-4----4-4-4-7-6----------|-4-4-4-4----4-4-4-7-6----------|
|-4-4-4-4----4-4-4-----7--9-9-9-|-4-4-4-4----4-4-4-----7--9-9-9-|
|-4-4-4-4----4-4-4--------------|-4-4-4-4----4-4-4--------------|

GTR2
|-----------------------------------|------------------------------------|
|-----------------------------------|------------------------------------|
|-----------------------------------|------------------------------------|
|-4-4-4-4---4-4-4-11-9--------------|-4-4-4-4----4-4-4-11-9--------------|
|-4-4-4-4---4-4-4------11--12-12-12-|-4-4-4-4----4-4-4------11--12-12-12-|
|-4-4-4-4---4-4-4-------------------|-4-4-4-4----4-4-4-------------------|

|---------------------------------|---------------------------------|
|---------------------------------|---------------------------------|
|---------------------------------|---------------------------------|
|-0-0-0-4---6---7---9---7---9-9-9-|-0-0-0-4---6---7---9---7---9-9-9-|
|-0-0-0---------------------------|-0-0-0---0---0---0---0---0-------|
|-0-0-0---0---0---0---0---0-------|-0-0-0---0---0---0---0---0-------|

|-----------------------------------|------------------------------------|
|-----------------------------------|------------------------------------|
|-----------------------------------|------------------------------------|
|-4-4-4-4---4-4-4-11-9--------------|-4-4-4-4----4-4-4-11-9--------------|
|-4-4-4-4---4-4-4------11--12-12-12-|-4-4-4-4----4-4-4------11--12-12-12-|
|-4-4-4-4---4-4-4-------------------|-4-4-4-4----4-4-4-------------------|

PRE CHORUS
GTR1
|-------------------------------------------------------------------------|
|-------------------------------------------------------------------------|
|----------------------------------------------------7-6------------------|
|-0-0-0-0--4-6-7---0-0-0-0--6-7-9---0-0-0-0--6-7--9-------9--7--6-7--9-11-|
|-0-0-0-0----------0-0-0-0----------0-0-0-0-------------------------------|
|-0-0-0-0----------0-0-0-0----------0-0-0-0-------------------------------|

GTR2
|-------------------------------------------------------------------------|
|-------------------------------------------------------------------------|
|----------------------------------------------------11-9-----------------|
|-0-0-0-0--7-9-11--0-0-0-0--9-11-12-0-0-0-0--9-11-12------12-11-9-11-12---|
|-0-0-0-0----------0-0-0-0----------0-0-0-0-------------------------------|
|-0-0-0-0----------0-0-0-0----------0-0-0-0-------------------------------|

CHORUS
GTR 1
|-------------------------------------------|--------------------12----10----9H10----9*~|
|----10----9H10-------12----10----9H10------|----10---9H10------------------------------|
|----------------------------------------11-|-11---11------11-11----11----11------11----|
|-11----11------11-11----11----11-----11----|-------------------------------------------|
|-------------------------------------------|-------------------------------------------|
|-------------------------------------------|-------------------------------------------|

|-----------------------------------------------|
|-----------------------------------------------|
|--------------------------------------6--------|
|-4-4-4-4-6-7-4-4-4-4-9-11-4-4-4-4-6-7---9-6-7--|
|-4-4-4-4-----4-4-4-4------4-4-4-4--------------|
|-4-4-4-4-----4-4-4-4------4-4-4-4--------------|

GTR2
|------------------------|------------------------|
|------------------------|------------------------|
|---------9----11---14---|---------13---14---16---|
|-0-0-0-0-X-X4-X-X4-X-X3-|-2-2-2-2-X-X4-X-X4-X-X3-|
|-0-0-0-0-7----9----12---|-2-2-2-2-11---12---14---|
|-0-0-0-0----------------|-2-2-2-2----------------|

|----------------------------------------------|
|----------------------------------------------|
|----------------------------------------------|
|-4-4-4-4-----4-4-4-4------4-4-4-4-----4-4-4-4-|
|-4-4-4-4-----4-4-4-4------4-4-4-4-----4-4-4-4-|
|-4-4-4-4-----4-4-4-4------4-4-4-4-----4-4-4-4-|
PLAY CHORUS TWICE

PRE BRIDGE
BOTH
|------------------------------|-------------------|
|------------------------------|-------------------|
|---9---11--14----13---14---16-|---13---14---16----|
|-0-X---X---X---2-X----X----X--|-2-X----X----X---4-|
|-0-7---9---12--2-11---12---14-|-2-11---12---14--4-|
|-0-------------2--------------|-2---------------4-|

BRIDGE 
GTR1
|-----------------------------------------------|
|-----------------------------------------------|
|---------11---------------11---------------11--|
|-9H11H12----12H11H9H11H12----12H11H9H11H12-----|
|-----------------------------------------------|X2
|-----------------------------------------------|
FIRST TIME ONLY
|-----------------------------------------------|
|---------10---------------10---------------10--|
|-----------------------------------------------|
|-9H11H12----12H11H9H11H12----12H11H9H11H12-----|
|-----------------------------------------------|X2
|-----------------------------------------------|

GTR2
|-------------------------------------------------|
|-------------------------------------------------|
|----------14----------------14----------------14-|
|-12H14H16----16H14H12H14H16----16H14H12H14H16----|
|-------------------------------------------------|X2
|-------------------------------------------------|
FIRST TIME ONLY
|-------------------------------------------------|
|----------14----------------14----------------14-|
|-------------------------------------------------|
|-12H14H16----16H14H12H14H16----16H14H12H14H16----|
|-------------------------------------------------|X2
|-------------------------------------------------|
PLAY TWICE
END ON
GTR1
|--------------------|
|-10--------------10-|
|--------------------|
|---12H11H9H11H12----|
|--------------------|
|--------------------|

GTR 2
|----------------------|
|-14----------------14-|
|----------------------|
|----16H14H12H14H16----|
|----------------------|
|----------------------|

SOLO
GTR1                         TRILL
|-----------------------------------|
|-10--12/14--15/17--15-14--12H14H12-|
|-----------------------------------|
|-----------------------------------|
|-----------------------------------|
|-----------------------------------|

|-21-19-17-19-17-16-17-16----16--------------------------------------------|
|-------------------------19----19-17-19-17--------------------------------|
|--------------------------------------------18-19-18-16-18-16----16-------|
|--------------------------------------------------------------19----19-18-|
|--------------------------------------------------------------------------|
|--------------------------------------------------------------------------|

|-------------------------------------------------------|
|-------------------------------------------------------|
|-------------------------------------------------------|
|-19-18----16-------------------------------------------|
|-------19----19-16-17-16-14-16-14-11----12---11---7--4-|
|-------------------------------------------------------|

                                             X4
|-------------------------7-9-10-12-14-[16-17-16-14]-|
|-----------------7-9-10-----------------------------|
|-----------6-7-9------------------------------------|
|-----6-7-9------------------------------------------|
|-7-9------------------------------------------------|
|----------------------------------------------------|

|-21-17-------------------21~-19~--17--16------------------|
|-------19---------17-19------------------17--19~---17-19~-|
|---------------18-----------------------------------------|
|-----------16/--------------------------------------------|
|----------------------------------------------------------|
|----------------------------------------------------------|

GTR2
|-------------------------------------|
|-------------------------------------|
|-------------------------------------|
|-0-----2-----4-----0-----2-----4-----|
|-0-X16-2-X16-4-X32-0-X16-2-X16-4-X32-|
|-0-----2-----4-----0-----2-----4-----|

GTR3 (FIRST PART OF SOLO)       TRILL
|---------------------------------------|
|----------------12/14--12--------------|
|-11--13--13/14------------14--13H14H13-|
|---------------------------------------|
|---------------------------------------|
|---------------------------------------|

(LAST PART OF SOLO)
|----------------------------------------------------------|
|-------------------------17~-15~--14----------------------|
|--------------------------------------16-13--14~---13-14~-|
|----------------------------------------------------------|
|----------------------------------------------------------|
|----------------------------------------------------------|

REPEAT CHORUS
AND PRE BRIDGE AS OUTRO
Добавлено: 15.06.2012
Другие материалы по этой песне:

Страница создана 07.03.2012
http://primanota.ru/lovehatehero/to-the-end-chords.htm
Привет, Гость.
Предлагаем пройти революционный курс по гитаре.
Подарок от PrimaNota.Ru, забирай!