PrimaNota.ru - самый крупный в мире бесплатный архив песенных текстов, аккордов, табулатур и нот


Lovehatehero - She Puts The Ho In Homewrecker - таба, видео

Регистрация Запомнить меня
Войти через:  Facebook Google Twitter Vk Yandex Mail.ru

Lovehatehero - She Puts The Ho In Homewrecker - таба, видео

Печатать
Просмотров: 81
LoveHateHero
She Puts The Ho In Homewrecker
White Lies

ok. there arent any tabs for this song yet. so i figured out as much as i could of it. so here you go. enjoy.

. palm mute
/\ slides
h hammer on
p pull off
b bend
x dead string
~ let ring
^ pinch harmonic

|--------------|
|--------------|
|--------------| intro
|-0-0-0-1/-----|
|-0-0-0-1/-----|
|-0-0-0-1/-----|
  . . .

|---------------------------------------------------------------|
|---------------------7-----------------------------------------|
|--------------------10----------------------------------10/14--|
|----------------------------------------------------0-0--x/-x--|
|----------------------------------------------------0-0--8/12--|
|-0-0-6p0-0-5p0-0-8p0----0-0-2b--0-0-6p0-0-5p0-0-8p0-0-0--------|
                                                     . .

|------------------------------------------------------------|
|--------------13--11-10----10--------------13--11-10----10--|
|---------9-10-----------12------------9-10-----------12-----|
|------------------------------------------------------------|
|------------------------------------------------------------|
|------------------------------------------------------------|

|-------------------------------------------13---------------|
|-------------------------------------13-15-----16-15-13-15--|
|------------------------------------------------------------|
|-8-8-8-8-8--8-8--8-8--8~--9-9-9-9-9-------------------------|
|-8-8-8-8-8--8-8--8-8--8~--9-9-9-9-9-------------------------|
|-8-8-8-8-8--8-8--8-8--8~--9-9-9-9-9-------------------------|

|----------------------------------------|
|----------------------------------------|
|-----10-10-10-10-10-10-10-10-10-10------|
|-0-0--x--x--x--x--x--x--x--x--x--x-0-0--|
|-0-0--8--8--8--8--8--8--8--8--8--8-0-0--|
|-0-0-------------------------------0-0--|
                                    . .

|----------------------------------------|
|----------------------------------------|
|-----10-10-10-10-10-10------------------|
|-0-0--x--x--x--x--x--x--9-9-9-9-9-9-9---|
|-0-0--8--8--8--8--8--8--9-9-9-9-9-9-9---|
|-0-0--------------------9-9-9-9-9-9-9---|

|-------------------------------------------------------------------|
|-------------------------------------------------------------------|
|-----10-10-10-10-10-10-10-10-10-10---------------------------------|
|-0-0--x--x--x--x--x--x--x--x--x--x-0-0-0-8-88--8--7--7-7-7-7-7-7-7-|
|-0-0--8--8--8--8--8--8--8--8--8--8-0-0-0-8-88--8--7--7-7-7-7-7-7-7-|
|-0-0-------------------------------0-0-0-8-88--8--7--7-7-7-7-7-7-7-|
                                    . . .
|---------------------------------------------|
|---------------------------------------------|
|---------------------------------------------|
|-5--7h8---8-55-8-00000-5--7h8---8-0-0--0-1/--|
|-5------8---55---00000-5------8---0-0--0-1/--|
|-5----------55---00000-5----------0-0--0-1/--|
                  .....            . .  .

|-------------------------------------------------------|
|-------------------------------------------------------|
|-------------------------------------------------------|
|-0--7h8--3--8--7h8-0000-----0--7h8--3--8--7h8-0000-----|
|-0--7h8--3--8--7h8-0000-----0--7h8--3--8--7h8-0000-----|
|-0--7h8--3--8--7h8-0000-2^--0--7h8--3--8--7h8-0000-2^--|
                    ....                       ....

|-------------------------------------------------------|
|--------------------------5----------------------------|
|--------------------------7----------------------------|
|----------------------000--------------------------5^--|
|----------7p0------5--000-------------7p0--------------|
|-0--6\5-0-----3--0----000----0--6\5-0-----3--0-2/3-----|
                       ...

|------------------------------------------------------------|
|--------------13--11-10----10--------------13--11-10----10--|
|---------9-10-----------12------------9-10-----------12-----|
|------------------------------------------------------------|
|------------------------------------------------------------|
|------------------------------------------------------------|

|-------------------------------------------13---------------|
|-------------------------------------13-15-----16-15-13-15--|
|------------------------------------------------------------|
|-8-8-8-8-8--8-8--8-8--8~--9-9-9-9-9-------------------------|
|-8-8-8-8-8--8-8--8-8--8~--9-9-9-9-9-------------------------|
|-8-8-8-8-8--8-8--8-8--8~--9-9-9-9-9-------------------------|

|----------------------------------------|
|----------------------------------------|
|-----10-10-10-10-10-10-10-10-10-10------|
|-0-0--x--x--x--x--x--x--x--x--x--x-0-0--|
|-0-0--8--8--8--8--8--8--8--8--8--8-0-0--|
|-0-0-------------------------------0-0--|
                                    . .

|----------------------------------------|
|----------------------------------------|
|-----10-10-10-10-10-10------------------|
|-0-0--x--x--x--x--x--x--9-9-9-9-9-9-9---|
|-0-0--8--8--8--8--8--8--9-9-9-9-9-9-9---|
|-0-0--------------------9-9-9-9-9-9-9---|

|--------------------------------------------------|
|--------------------------------------------------|
|-14--------14\12--10------14--------14\12--10-----|
|--x---------x\-x---x-------x---------x\-x---x-----|
|-12--------12\10---8------12--------12\10---8-----|
|--------------------------------------------------|

|-----------------------------------------------------|
|---------------------------15---17---------18----22--|this part is played
|-----------------------------------------------------|in the back
|-----------------------------------------------------|
|-----------------------------------------------------|
|-----------------------------------------------------|

these next parts are just the chorus slowed down

|---------------------------------------|
|---------------------------------------|
|-----10-10-10-10-10-10-10-10-10-10-10--|
|-0-0--x--x--x--x--x--x--x--x--x--x--x--|
|-0-0--8--8--8--8--8--8--8--8--8--8--8--| 
|-0-0-----------------------------------| 
                                              
|---------------------------------------| 
|---------------------------------------|
|-----10-10-10-10-10-10-----------------|
|-0-0--x--x--x--x--x--x--9-9-9-9-9-9-9--|
|-0-0--8--8--8--8--8--8--9-9-9-9-9-9-9--|
|-0-0--------------------9-9-9-9-9-9-9--|

|---------------------------------------|
|---------------------------------------|
|-----10-10-10-10-10-10-10-10-10-10-10--|
|-0-0--x--x--x--x--x--x--x--x--x--x--x--|
|-0-0--8--8--8--8--8--8--8--8--8--8--8--| 
|-0-0-----------------------------------| 

|------------------------------|
|------------------------------|
|------------------------------|
|-0-0-8-8-8-8-8-8-8-8-8-7-7-7--|
|-0-0-8-8-8-8-8-8-8-8-8-7-7-7--|
|-0-0-8-8-8-8-8-8-8-8-8-7-7-7--|

|---------------------------------------|
|---------------------------------------|
|-----10-10-10-10-10-10-10-10-10-10-10--|
|-0-0--x--x--x--x--x--x--x--x--x--x--x--|
|-0-0--8--8--8--8--8--8--8--8--8--8--8--| 
|-0-0-----------------------------------| 
                                              
|---------------------------------------| 
|---------------------------------------|
|-----10-10-10-10-10-10-----------------|
|-0-0--x--x--x--x--x--x--9-9-9-9-9-9-9--|
|-0-0--8--8--8--8--8--8--9-9-9-9-9-9-9--|
|-0-0--------------------9-9-9-9-9-9-9--|

|---------------------------------------|
|---------------------------------------|
|-----10-10-10-10-10-10-10-10-10-10-10--|
|-0-0--x--x--x--x--x--x--x--x--x--x--x--|
|-0-0--8--8--8--8--8--8--8--8--8--8--8--| 
|-0-0-----------------------------------| 

|------------------------------|
|------------------------------|
|------------------------------|
|-0-0-8-8-8-8-8-8-8-8-8-7-7-7--|
|-0-0-8-8-8-8-8-8-8-8-8-7-7-7--|
|-0-0-8-8-8-8-8-8-8-8-8-7-7-7--|

|---------------------------------------------------------|
|--------------------------7/9-9-9-9/10-10-10-10-10-10-10-| 
|-8(16x)--10(16x)--0-0-0-0-x/x-x-x-x/-x--x--x--x--x--x--x-|
|-8(16x)--10(16x)--0-0-0-0-5/7-7-7-7/-8--8--8--8--8--8--8-|
|-8(16x)--10(16x)--0-0-0-0--------------------------------|
                   (---------------2x--------------------)

|------------------|
|------------------|
|-8(16x)--10(16x)--| solo coming soon!
|-8(16x)--10(16x)--|
|-8(16x)--10(16x)--|

if you see ANY mistakes or whatever, please tell me somehow.

ill try to have more up later.

please rate and comment!


Добавлено: 17.07.2012
Вам также может быть интересно:
Другие материалы по этой песне:
  • Аккорды и текст

Страница создана 17.07.2012
http://primanota.ru/lovehatehero/she-puts-the-ho-in-homewrecker-chords.htm
Привет, Гость.
Предлагаем пройти революционный курс по гитаре.
Подарок от PrimaNota.Ru, забирай!