PrimaNota.ru - самый крупный в мире бесплатный архив песенных текстов, аккордов, табулатур и нот


Lovehatehero - Red Dress - таба, видео

Регистрация Запомнить меня
Войти через:  Facebook Google Twitter Vk Yandex Mail.ru

Lovehatehero - Red Dress - таба, видео

Печатать
Просмотров: 119
|------------------------------------------------------|
|----10--8--6--8--3--6--13--10-------------------------|
|--10--------------------------------------------------|
|------------------------------------------------------|
|------------------------------------------------------|
|------------------------------------------------------|

|------------------------------------------------------|
|----10--8--6--8--3--6--13--8--------------------------|
|--10--------------------------------------------------|
|------------------------------------------------------|
|------------------------------------------------------|
|------------------------------------------------------|

|------------------------------------------------------|
|----10--8--6--8--3--6--13--10----10--8--6--8--10~-----|
|--10-------------------------10-----------------------|
|------------------------------------------------------|
|------------------------------------------------------|
|------------------------------------------------------|

i'm pretty sure this is right
it sounds good to me
and this is my first tab
so here it is
enjoy
Добавлено: 22.07.2012
Другие материалы по этой песне:

Страница создана 16.04.2012
http://primanota.ru/lovehatehero/red-dress-chords.htm
Привет, Гость.
Предлагаем пройти революционный курс по гитаре.
Подарок от PrimaNota.Ru, забирай!