PrimaNota.ru - самый крупный в мире бесплатный архив песенных текстов, аккордов, табулатур и нот


Lovehatehero - Of Sound And Fury - таба, видео

Регистрация Запомнить меня
Войти через:  Facebook Google Twitter Vk Yandex Mail.ru

Lovehatehero - Of Sound And Fury - таба, видео

Печатать
Просмотров: 120
OF SOUND AND FURY
LOVEHATEHERO
WHITE LIES 2007

DROP C, CGCFAD
GTR1-LEAD DISTORTED
GTR2-RHYTHM OVERDUB
GTR3-LEAD 2 OVERDUB
GTR4-ACOUSTIC OVERDUB
GTR5-ACOUSTIC OVERDUB

Intro
GTR1
|--------------------------------------------|   
|--------------------------------------------|   
|-----6h7p6----------9--7--6h7p6----6--------|   
|---7--------9--7--6--------------9---9--7---|   
|-9------------------------------------------|x2 
|--------------------------------------------|   

|--------------------------------------------|
|--------------------------------------------|
|-----6h7p6----------9--7--6h7p6-----6-------|
|-0-7--------9--7-6---------------9-----9--7-|
|--------------------------------------------|x2
|--------------------------------------------|

GTR2
|---|   |---|
|---|   |---|
|---|   |---| Strumming Not Defined
|-4-|   |-0-|
|-4-|x2 |-0-|x2
|-4-|   |-0-|

GTR3
|-----9h10p9---------12-10-9h10p9----9-------|  
|---10-------12-10-9--------------12---12-10-|  
|-11-----------------------------------------|  
|--------------------------------------------|  
|--------------------------------------------|x2
|--------------------------------------------|

Verse 1
GTR1
|-------------------------------------|------------------------------------|
|-------------------------------------|------------------------------------|
|-----------------6-7--9---7---6--7-0-|----------------6-7--9---7---6-7--6-|
|-4-4-4--4-4-2------------------------|-0-0-0--0-0-2-----------------------|
|-4-4-4--4-4-2------------------------|-0-0-0--0-0-2-----------------------|
|-4-4-4--4-4-2------------------------|-0-0-0--0-0-2-----------------------|
GTR3
|-------------------------------------|----------------9-10-12--10--9-10-9-|
|-----------------9-10-12--10--9-10---|------------------------------------|
|-----------------------------------7-|------------------------------------|
|-4-4-4--4-4-2------------------------|-0-0-0--0-0-2-----------------------|
|-4-4-4--4-4-2------------------------|-0-0-0--0-0-2-----------------------|
|-4-4-4--4-4-2------------------------|-0-0-0--0-0-2-----------------------|

THEN
GTR1 AND GTR3
|---------------------|
|---------------------|
|---------------------|
|-0-0-0--0-0-2--2-2-2-|
|-0-0-0--0-0-2--2-2-2-|
|-0-0-0--0-0-2--2-2-2-|

PRE CHORUS
GTR1
|-----------------------------------------------------|
|-----------------------------------------------------|
|---------4--------6-----4---------4--------6---6-4---|
|--4-4--4---4-4--4---4-4----4-4--4---4-4--4---------6-|
|--4-4--4---4-4--4---4-4----4-4--4---4-4--4-----------|
|--4-4--4---4-4--4---4-4----4-4--4---4-4--4-----------|
GTR3
|-----------------------------------------------------|
|-----------------------------------------------------|
|-----------------------------------------------------|
|--4-4--4-6-4-4--4-7-4-4-6--4-4--4-6-4-4--4-7---7-6---|
|--4-4--4---4-4--4---4-4----4-4--4---4-4--4----------7|
|--4-4--4---4-4--4---4-4----4-4--4---4-4--4-----------|

CHORUS
GTR1
|------------/12---12-----------/12-|
|-----------------------------------|
|-----14-13---------------14-13-----|
|-12-------------------11-----------|
|-----------------------------------|
|-----------------------------------|
                         
|-14-14-14----------12-12-12----------9-9-9------------------|
|----------14-14-14----------12-12-12-------10-10-10r-9h10h9-|
|------------------------------------------------------------|
|------------------------------------------------------------|
|------------------------------------------------------------|
|------------------------------------------------------------|
                                                      |Trill|
|-----------------------------------|
|------------/17---17-----------/17-|
|-----14-13---------------14-13-----|
|-12-------------------11-----------|
|-----------------------------------|
|-----------------------------------|

|-17----14-14-14h16-16-16h17-17-17h19-19-19-/21--17-16--17-17h16p17----|
|----14-------------------------------------------------------------17-|
|----------------------------------------------------------------------|
|----------------------------------------------------------------------|
|----------------------------------------------------------------------|
|----------------------------------------------------------------------|
GTR3
|------------------------------------------------------|
|------------------------------------------------------|
|------------------------------------------------------|
|-0--------------2--------------4------------4---------|
|-0--------------2--------------4------------4---------|x2
|-0--------------2--------------4------------4---------|

POST VERSE
GTR1
|-----9h10p9---------12-10-9h10p9----9-------|   
|---10-------12-10-9--------------12---12-10-|   
|-11-----------------------------------------|   
|--------------------------------------------|          
|--------------------------------------------|x2 
|--------------------------------------------|   
GTR3
|---||---|
|---||---|
|---||---| 
|-0-||-2-|
|-0-||-2-|
|-0-||-2-|

VERSE 2
GTR1
|---------------------------|---------------------------|
|---------------------------|---------------------------|
|-11------------6-----------|---7----------6-7--6-------|
|-11--11-11--7-------6-7--9-|-7-7--7-7--7---------9--7--|
|-9---9--9---------9--------|-5-5--5-5------------------|
|---------------------------|---------------------------|

|-----------------------------------------------------|
|-----------------------------------------------------|
|---9---------6---------7-6-----6---------------------|
|-9-9--9-9--7-----6-7-9-----9-7---9-7-6-9-7-6---7-6---|
|-7-7--7-7------9-----------------------------9-----7-|
|-----------------------------------------------------|
GTR3
|--------------9------------|--------------9-10-9-------|
|-----------10------9-10-12-|----------10---------12-10-|
|-11-------------11---------|---7-----------------------|
|-11--11-11-----------------|-7-7--7-7------------------|
|-9---9--9------------------|-5-5--5-5------------------|
|---------------------------|---------------------------|

|-------------9------------10-9-------9-------------------------|
|----------10------9-10-12------12-10---12-10-9-12-10-9---10-9--|
|---9-----------11--------------------------------------11----9-|
|-9-9--9-9------------------------------------------------------|
|-7-7--7-7------------------------------------------------------|
|---------------------------------------------------------------|

REPEAT PRE CHORUS
REPEAT CHORUS
REPEAT POST CHORUS

BRIDGE
GTR1
|------0--2---------------4--5--4-------|
|------------0---------2-----------5--2-|
|----2----------------------------------|
|-0--------------2--4-------------------|
|---------------------------------------|
|---------------------------------------|
GTR3
|------12-14--------------16-17-16------|
|------------12--------14----------17-14|
|----14---------------------------------|
|-12-------------14-16------------------|
|---------------------------------------|
|---------------------------------------|
Bridge pt.2
GTR1
|------------------------------14--------------------|
|--------9--------10--------9-----12-14--------------|
|---------------------------------------14--14-13----|
|-4-4--4---4-4--4----4-4--4-----------------------14-|
|-4-4--4---4-4--4----4-4--4--------------------------|
|-4-4--4---4-4--4----4-4--4--------------------------|
GTR3
|----------------------------------------------------|
|----------------------------------------------------|
|------------------------------9---------------------|
|-4-4--4-6-4-4--4-7--4-4--4-6-----9--11--------------|
|-4-4--4---4-4--4----4-4--4-------------12--12-11----|
|-4-4--4---4-4--4----4-4--4-----------------------14-|
Bridge pt.3
GTR4
|-----------12-|  |-----------9-|
|------10------|  |------10-----|
|-9h11----9----|  |-9h11----9---|
|--------------|  |-------------|
|--------------|x2|-------------|
|--------------|  |-------------|
GTR5
|------------------------------------------------------------------|
|------------------------------------------------------------------|
|------------------------------------------------------------------| 
|-0--------------------2--------------4------------------4---------|
|-0--------------------2--------------4------------------4---------|
|-0--------------------2--------------4------------------4---------|
Strumming not Defined
Bridge pt.4
GTR1
|-----------12-|  |-----------9-|
|------10------|  |------10-----|
|-9h11----9----|  |-9h11----9---|
|--------------|  |-------------|
|--------------|x2|-------------|x2
|--------------|  |-------------|
GTR2
|---|---|
|---|---|
|---|---| Strumming not Defined
|-0-|-2-|
|-0-|-2-|
|-0-|-2-|

OUTRO
GTR1
|-17----14-14-14h16-16-16h17-17-17h19-19-19-/21--17-16--17-17h16p17----|
|----14-------------------------------------------------------------17-|
|----------------------------------------------------------------------|
|----------------------------------------------------------------------|
|----------------------------------------------------------------------|
|----------------------------------------------------------------------|
GTR2
|---|---|
|---|---|
|---|---| Strumming not Defined
|-4-|-4-|
|-4-|-4-|
|-4-|-4-|
GTR1
|-----9h10p9---------12-10-9h10p9----9-------|  |----|
|---10-------12-10-9--------------12---12-10-|  |----|End On
|-11-----------------------------------------|  |-11-|
|--------------------------------------------|  |----|
|--------------------------------------------|x2|----|
|--------------------------------------------|  |----|
GTR2
|---|---|---|
|---|---|---|End On
|---|---|---|Strumming not Defined
|-0-|-2-|-0-|
|-0-|-2-|-0-|
|-0-|-2-|-0-|

Добавлено: 20.06.2012
Другие материалы по этой песне:

Страница создана 30.05.2012
http://primanota.ru/lovehatehero/of-sound-and-fury-chords.htm
Привет, Гость.
Предлагаем пройти революционный курс по гитаре.
Подарок от PrimaNota.Ru, забирай!