PrimaNota.ru - самый крупный в мире бесплатный архив песенных текстов, аккордов, табулатур и нот


Lovehatehero - Ill Make It To The Brigades - таба, видео

Регистрация Запомнить меня
Войти через:  Facebook Google Twitter Vk Yandex Mail.ru

Lovehatehero - Ill Make It To The Brigades - таба, видео

Печатать
Просмотров: 105
Ill Make It To The Brigades
LoveHateHero
White Lies

GTR1 - CGCFAD 
GTR2 - CGCFAD

Intro   
GTR1
|-------------------------|-----------------------|
|-------------------------|-----------------------|
|-----8-8-8-8-----6-6-6-6-|-----8-8-8-8-----------|
|-6-6---------6-6---------|-6-6---------6-6-x-4---|
|-6-6---------6-6---------|-6-6---------6-6-x-4---|
|-6-6---------6-6---------|-6-6---------6-6-x-4---|

|-------------------------|-------------------------|
|-------------------------|-------------------------|
|-----4-4-4-4-------------|-----6-6-6-6-----8-8-8-8-|
|-2-2---------2-2-4-4-4-4-|-4-4---------4-4---------|
|-2-2---------2-2---------|-4-4---------4-4---------|
|-2-2---------2-2---------|-4-4---------4-4---------|

|-------------------------|-----------------------|
|-------------------------|-----------------------|
|-----8-8-8-8-----6-6-6-6-|-----8-8-8-8-----------|
|-6-6---------6-6---------|-6-6---------6-6-x-4---|
|-6-6---------6-6---------|-6-6---------6-6-x-4---|
|-6-6---------6-6---------|-6-6---------6-6-x-4---|

|-------------------|--------------------------|
|-------------------|-----5*5*5*5*-------------|
|-------------------|--------------------------|
|-2-2--x--2--x--2-2-|-4-4-x-x-x-x--4-4-4/6-6-6-|
|-2-2--x--2--x--2-2-|-4-4-x-x-x-x--4-4-4/6-6-6-|
|-2-2--x--2--x--2-2-|-4-4-x-x-x-x--4-4-4/6-6-6-|

GTR2
|-------------------------|-----------------------|
|-------------------------|-----------------------|
|-------------------------|-----------------------|
|-6-6-9-9-9-9-6-6-8-8-8-8-|-6-6-9-9-9-9-6-6-x-4---|
|-6-6---------6-6---------|-6-6---------6-6-x-4---|
|-6-6---------6-6---------|-6-6---------6-6-x-4---|

|-------------------------|-------------------------|
|-------------------------|-------------------------|
|-------------------------|-------------------------|
|-2-2-6-6-6-6-2-2-4-4-4-4-|-4-4-8-8-8-8-4-4-9-9-9-9-|
|-2-2---------2-2---------|-4-4---------4-4---------|
|-2-2---------2-2---------|-4-4---------4-4---------|

|-------------------------|-----------------------|
|-------------------------|-----------------------|
|-------------------------|-----------------------|
|-6-6-9-9-9-9-6-6-8-8-8-8-|-6-6-9-9-9-9-6-6-x-4---|
|-6-6---------6-6---------|-6-6---------6-6-x-4---|
|-6-6---------6-6---------|-6-6---------6-6-x-4---|

|-------------------|--------------------------|
|-------------------|--------------------------|
|-------------------|--------------------------|
|-2-2--x--2--x--2-2-|-4-4-x-x-x-x--4-4-4/6-6-6-|
|-2-2--x--2--x--2-2-|-4-4-x-x-x-x--4-4-4/6-6-6-|
|-2-2--x--2--x--2-2-|-4-4-x-x-x-x--4-4-4/6-6-6-|

Verse
GTR1
|--------------------------------------------------|
|--------------------------------------------------|
|--------------------------------------------------|
|-2-2--2-2-2--4-4--4-4-4--6-6--x--6-6--6-6-6-4-4-4-|
|-2-2--2-2-2--4-4--4-4-4--6-6--x--6-6--6-6-6-4-4-4-|
|-2-2--2-2-2--4-4--4-4-4--6-6--x--6-6--6-6-6-4-4-4-|

|---------------------------------------------------------------------|
|---------------------------------------------------------------------|
|-13--8--11--6---6-6-8-6--4-4--4-4--6-6--6-6--6/8/6---4---8-8-8-6-4-3-|
|---------------------------------------------------------------------|
|-11--6--9---4---4-4-6-4--2-2--2-2--4-4--4-4--4/6/4---2---6-6-6-4-2-1-|
|---------------------------------------------------------------------|

|----------------------------------|
|----------------------------------|
|-13-13-13-8--8/11-11-11-6/8/6---4-|
|----------------------------------|
|-11-11-11-6--6/9--9--9--4/6/4---2-|
|----------------------------------|

GTR2
|--------------------------------------------------|
|--------------------------------------------------|
|--------------------------------------------------|
|-2-2--2-2-2--4-4--4-4-4--6-6--x--6-6--6-6-6-4-4-4-|
|-2-2--2-2-2--4-4--4-4-4--6-6--x--6-6--6-6-6-4-4-4-|
|-2-2--2-2-2--4-4--4-4-4--6-6--x--6-6--6-6-6-4-4-4-|

|------------------------------------------------|
|------------------------------------------------|
|------------------------------------------------|
|-2-2--2-2-2--4-4--4-4-4--2-2--2-2-2--2-2--2-2-2-|
|-2-2--2-2-2--4-4--4-4-4--2-2--2-2-2--2-2--2-2-2-|
|-2-2--2-2-2--4-4--4-4-4--2-2--2-2-2--2-2--2-2-2-|

|---------------------------------------------------|
|---------------------------------------------------|
|---------------------------------------------------|
|-4-4--4-4-4--1-1--1-1-1--6-6--6-6-6--9-9--9-9-9--2-|
|-4-4--4-4-4--1-1--1-1-1--6-6--6-6-6--9-9--9-9-9--2-|
|-4-4--4-4-4--1-1--1-1-1--6-6--6-6-6--9-9--9-9-9--2-|

Pre Chorus
GTR1
|-------------|
|-------------|
|-/4-3-4-/6-4-|
|-------------|
|-------------|
|-------------|

GTR2
|--------------|
|-/4-2-4-/5-4--|
|--------------|
|--------------|
|--------------|
|--------------|

Chorus
GTR1
|---2---------------------------|---2------------------------------------|
|-----4--4-4-4---2--------------|-----4--4-4-4---2-2-2-----2-2-2-----2-2-|
|-1------------4---3--3-4-3-1-3-|-1------------4-------4-4-------4-4-----|
|-------------------------------|----------------------------------------|
|-------------------------------|----------------------------------------|
|-------------------------------|----------------------------------------|
 
GTR2
|-----------------------------------------------------------------------------|
|-----------------------------------------------------------------------------|
|-----------------------------------------------------------------------------|
|-6-6-2-2--2-2-2--9-9-4-4--4-4-4--6-6-2-2--2-2-2--2/4-4-4-2-2/4-4-4-2-2/4-4-4-|
|-6-6-2-2--2-2-2--9-9-4-4--4-4-4--6-6-2-2--2-2-2--2/4-4-4-2-2/4-4-4-2-2/4-4-4-|
|-6-6-2-2--2-2-2--9-9-4-4--4-4-4--6-6-2-2--2-2-2--2/4-4-4-2-2/4-4-4-2-2/4-4-4-|

Repeat Intro
Repeat Verse
Repeat Pre Chorus
Repeat Chorus
Bridge
GTR1
|----------------------------------------|
|---------------------7----9----11----12-|
|-4----4/6----6/4------------------------|
|----------------------------------------|
|----------------------------------------|
|----------------------------------------|

GTR2
|-----------------------------------------------------------------|
|-------------------------------------------------4-----4-----4---|
|-4---4---4---4---4---4---4---4---6---6---6---6-----6-----6-----6-|
|---4---4---4---4---4---4---4---4---4---4---4---4-----4-----4-----|
|-----------------------------------------------------------------|
|-----------------------------------------------------------------|

|-----------------------------------------------------------------|
|-----------------------------------------------------------------|
|-4---4---4---4---4---4---4---4---4---4---4---4---4---4---4---4---|
|---4---4---4---4---4---4---4---4---4---4---4---4---4---4---4---4-|
|-----------------------------------------------------------------|
|-----------------------------------------------------------------|

Then
GTR1
|-----------------------------------------------------------------------------|
|-----------------------------------------------------------------------------|
|-----8-8-8-8-8-8-8-8-8-8-8-8-8-8-8-8---------8-8-8-8-8-8-8-8-6-6-6-6-6-6-6-6-|
|-6-6---------------------------------6-6-6-6---------------------------------|
|-6-6---------------------------------6-6-6-6---------------------------------|
|-6-6---------------------------------6-6-6-6---------------------------------|

|-----------------------------------------------------------------------------|
|-----------------------------------------------------------------------------|
|---------4-4-4-4-4-4-4-4-4-4-4-4-4-4-----------------------------------------|
|-2-2-2-2-----------------------------2-2-2-2-4-4-4-4-4-4-4-4-4-4-4-4-4-4-4-4-|
|-2-2-2-2-----------------------------2-2-2-2---------------------------------|
|-2-2-2-2-----------------------------2-2-2-2---------------------------------|

GTR2
|-----------------------------------------------------------------------------|
|-----------------------------------------------------------------------------|
|-----------------------------------------------------------------------------|
|-6-6-9-9-9-9-9-9-9-9-9-9-9-9-9-9-9-9-6-6-6-6-9-9-9-9-9-9-9-9-8-8-8-8-8-8-8-8-|
|-6-6---------------------------------6-6-6-6---------------------------------|
|-6-6---------------------------------6-6-6-6---------------------------------|

|-----------------------------------------------------------------------------|
|-----------------------------------------------------------------------------|
|-----------------------------------------------------------------------------|
|-2-2-2-2-6-6-6-6-6-6-6-6-6-6-6-6-6-6-2-2-2-2-4-4-4-4-4-4-4-4-4-4-4-4-4-4-4-4-|
|-2-2-2-2-----------------------------2-2-2-2---------------------------------|
|-2-2-2-2-----------------------------2-2-2-2---------------------------------|

Repeat Chorus
Final Chorus
GTR1
|---4---------------------------|---4------------------------------------|
|-----6--6-6-6---4--------------|-----6--6-6-6---4-4-4-----4-4-4-----4-4-|
|-3------------6---5--5-6-5-3-5-|-3------------6-------6-6-------6-6-----|
|-------------------------------|----------------------------------------|
|-------------------------------|----------------------------------------|
|-------------------------------|----------------------------------------|

GTR2
|-------------------------------------------------------------------------------|
|-------------------------------------------------------------------------------|
|-------------------------------------------------------------------------------|
|-8-8-4-4--4-4-4--11-11-6-6--6-6-6--8-8-4-4--4-4-4--4/6-6-6-4-4/6-6-6-4-4/6-6-6-|
|-8-8-4-4--4-4-4--11-11-6-6--6-6-6--8-8-4-4--4-4-4--4/6-6-6-4-4/6-6-6-4-4/6-6-6-|
|-8-8-4-4--4-4-4--11-11-6-6--6-6-6--8-8-4-4--4-4-4--4/6-6-6-4-4/6-6-6-4-4/6-6-6-|

Добавлено: 09.06.2012
Другие материалы по этой песне:

Страница создана 08.06.2012
http://primanota.ru/lovehatehero/ill-make-it-to-the-brigades-chords.htm
Привет, Гость.
Предлагаем пройти революционный курс по гитаре.
Подарок от PrimaNota.Ru, забирай!