PrimaNota.ru - самый крупный в мире бесплатный архив песенных текстов, аккордов, табулатур и нот


Lovehatehero - Goodbye My Love - таба, видео

Регистрация Запомнить меня
Войти через:  Facebook Google Twitter Vk Yandex Mail.ru

Lovehatehero - Goodbye My Love - таба, видео

Печатать
Просмотров: 301
Song: Goodbye My Love
Band: LoveHateHero
Album: White Lies

Tabbed By: Rowell
If you have any questions about the tab just leave a comment and I'll try to answer asap.

Drop C tuning.

Update : Fixed verse and solo.
Update 2: Added missing verse 3 part
Upadte 3: Added missing verse 2 variation

Intro/Verse part 1

Guitar 1
(Play the part with the parentheses the second time.)
|-----7p0-----7p0---------10p0-------------7p0-----7p0----------------------|
|---------8p0-----8p0-7p0----------------------8p0-----8p0-7p0-3p0----------|
|---------------------------------------------------------------------------|
|-5(9)--------------------------------5(9)----------------------------------|
|-3(7)--------------------------------3(7)----------------------------------|
|---------------------------------------------------------------------------|

Harmony part
|-----10p0------10p0-----------14p0--------10p0------10p0-------------------|
|----------12p0------12p0-10p0-------------------12p0-----12p0-10p0-7p0-----|
|---------------------------------------------------------------------------|
|-5(9)--------------------------------5(9)----------------------------------|
|-3(7)--------------------------------3(7)----------------------------------|
|---------------------------------------------------------------------------|

Verse part 2
|---------------------------------------------------------|
|---------------------------------------------------------|
|-7-77-777-777-77-11-1111-1111-121212-1212----------------|
|-5-55-555-555-55--x--x-x--x-x--x-x-x--x-x----------------|
|-3-33-333-333-33--9--9-9--9-9-101010-1010----------------|
|---------------------------------------------------------|

|-------------------------------------------|
|-------------------------------------------|
|-------------------------------------------|
|-2p0-2-000-2p0-2-000-2p0-2-000-2p0-2-000---|
|-2p0-2-000-2p0-2-000-2p0-2-000-2p0-2-000---|
|-2p0-2-000-2p0-2-000-2p0-2-000-2p0-2-000---|
PM      ...       ...       ...       ...

Prechorus
|---7p0-5p0-8----7p0-5p0-8----7p0-5p0-8---7p0--------------|
|---------------------------------------------7~-----------|
|----------------------------------------------------------|
|-5------------5------------7-----------7------------------|
|-3------------3------------5-----------5------------------|
|----------------------------------------------------------|

Chorus
(Rhythm is the same as the beginning of the verse part 2)
|---------------------------------|
|---------------------------------|
|-12---------------11-------------|
|--9----------------x-------------| (x4)
|--7---------------13-------------|
|---------------------------------|

Postchorus/Verse parts
(add9 appregios. Listen to song to find out when to palm mute.)
|--------------------------------------------|
|-------8--7-------8--7------8--7------8—-7--|
|---11---11----11---11----11--11----11--11---|
|--9--9-------9--9-------9--9------9--9------|
|-7----------7----------5---------3----------|
|--------------------------------------------|

Verse 2 variation
(Notes on the fifth and sixth string are palm muted. 
The other notes are basically the same ones just moved one string higher or lower.)

|-------------------|----------------------------------------------|
|----------------8--|-------7-----7-8------------------------------|
|------11-----11----|---------------------------11---------11--12--|
|----9------9-------|-----9-----9------------9----------9----------|
|-7-7-7--777-7--7-77|--5-5-5-555-5-5-55----------------------------|
|-------------------|-------------------10-10-10--101010-10--10----|
  Play this part 2x
 before playing next
        part

Verse 3
(Basically just palm mute the 7s on the fifth string)
|-------------------------------------------------|
|---------------8---------------------------------|
|--------------------11-----9h11p9-7~~------------|
|---------9---------------------------------------|
|-7-77777-----7----7----77------------------------|
|-------------------------------------------------|




Solo

Part 1
|----------------------------------12h15p12------------17p15p12-(x8)--|
|-----------/13-12-13-15b-15b-15b----------15p12-(x4)-----------------|
|-/12-11-12-----------------------------------------------------------|
|---------------------------------------------------------------------|
|---------------------------------------------------------------------|
|---------------------------------------------------------------------|

Part 2
|-19-17-15h17p15---17--17----------------------|
|----------------19--19--19-17p15h17b~-(x2)----|
|----------------------------------------------|
|----------------------------------------------|
|----------------------------------------------|
|----------------------------------------------|

|----------15-17-19-17-15--------------------------------------------|
|-15-17-19----------------19-17-15-----------------------------------|
|----------------------------------[17-16-14--------------16~-14-16~-|
|-------------------------------------------17-16-14-(x2)]-----------|
|--------------------------------------------------------------------|
|--------------------------------------------------------------------|

Part 3
|----------------------------------------------|
|--------/15-12-\------------------------------|
|-/12-11-----------/12-11-14b-14b-14p12----12~-|
|---------------------------------------14-----|
|----------------------------------------------|
|----------------------------------------------|

|-------------------12-14-14h15p14-14-12--------------------------------------|
|----------12-13-15----------------------15-13-12-----------------------------|
|-11-12-14----------------------------------------12-11-9---------/11*~-/12*~-|
|--------------------------------------------------------12-10-9--------------|
|-----------------------------------------------------------------------------|
|-----------------------------------------------------------------------------|

Part 4
(Tap)
|-t19p12h15-(x4)-t20p12h15-(x4)-t17p10h14-(x4)-t19p10h14-(x4)--|
|--------------------------------------------------------------|
|--------------------------------------------------------------|
|--------------------------------------------------------------|
|--------------------------------------------------------------|
|--------------------------------------------------------------|

|-t15p8h12-(x4)-t17p8h12-(x4)-t17/19p8h12-(x8)-----------------|
|--------------------------------------------------------------|
|--------------------------------------------------------------|
|--------------------------------------------------------------|
|--------------------------------------------------------------|
|--------------------------------------------------------------|

There you go. Enjoy!
Добавлено: 08.04.2012
Другие материалы по этой песне:

Страница создана 05.03.2012
http://primanota.ru/lovehatehero/goodbye-my-love-chords.htm
Привет, Гость.
Предлагаем пройти революционный курс по гитаре.
Подарок от PrimaNota.Ru, забирай!