PrimaNota.ru - самый крупный в мире бесплатный архив песенных текстов, аккордов, табулатур и нот


Lovehatehero - Echoes - таба, видео

Регистрация Запомнить меня
Войти через:  Facebook Google Twitter Vk Yandex Mail.ru

Lovehatehero - Echoes - таба, видео

Печатать
Просмотров: 117
-------------------------------------------------------------------------------
                            Echoes - LoveHateHero
-------------------------------------------------------------------------------
Tabbed by: Andrew Tamalunas
Email: lmaonade123@gmail.com

Tuning: Drop C tuning: CGCFAD


I liked the intro riff when I saw they put their
new album up on their myspace so I decided to start 
tabbing out the song.


    PM..............          PM.............
D|------------------------------------------------------------|
A|------------------------------------------------------------|
F|.-----------------------------------------------------------|
C|.------------------7--7--7------------------3--3--3---------|
G|-------------------8--8--8------------------5--5--5---------|
C|--8-8-8-8-8-8-8-8--8--8--8--5-5-5-5-5-5-5-5-5--5--5---------|
  

   PM      PM      PM      PM
D|------------------------------------------------------------|
A|------------------------------------------------------------|
F|-----------------------------2h3p2-------------------------.|  2x
C|----3p2-----5p3------7p5------------5-3-2-5----------------.| 
G|------------------------------------------------------------|  
C|-0-------0-------0--------0---------------------------------| 


D|-------------------------------------------------------------------|
A|-------------------------------------------------------------------|
F|.---------------------------------------.------.------.------.----.| 3x
C|.--8-8--------10-----5-5------7-----0-0-0--0-0-0--0-0-0--0-0-0----.|
G|---8-8--10-12----12--5-5--7-8---8---0-0-0--0-0-0--0-0-0--0-0-0-----|
C|---8-8---------------5-5------------0-0-0--0-0-0--0-0-0--0-0-0-----|


D|-------------------------------------------------------|
A|-------------------------------------------------------|
F|.------------------------------------------------5-----|
C|.--8-8--------10-----5-5------7-----3-3-3-3-3-3--------|
G|---8-8--10-12----12--5-5--7-8---8---3-3-3-3-3-3--------|
C|---8-8---------------5-5------------3-3-3-3-3-3--------|







| /  slide up
| \  slide down
| h  hammer-on
| p  pull-off
| ~  vibrato
| +  harmonic
| x  Mute note
| PM  Palm Mute
| . (above note)  Stacatto
===============================================================================
Добавлено: 04.04.2012
Другие материалы по этой песне:

Страница создана 23.02.2012
http://primanota.ru/lovehatehero/echoes-chords.htm
Привет, Гость.
Предлагаем пройти революционный курс по гитаре.
Подарок от PrimaNota.Ru, забирай!