PrimaNota.ru - самый крупный в мире бесплатный архив песенных текстов, аккордов, табулатур и нот


Love Psychedelico - Your Song - таба, видео

Регистрация Запомнить меня
Войти через:  Facebook Google Twitter Vk Yandex Mail.ru

Love Psychedelico - Your Song - таба, видео

Печатать
Просмотров: 95
                                  Your Song                                     


                              Love Psychedelico                               
                         


     Q    Q    E  E  E  E     Q    Q    E  E  E  E     Q    Q    E  E  E  E   
E||--2----2----2--2--x--2--|--2----2----2--2--x--2--|--2----2----2--2--x--2--|
B||--3----5----5--3--x--3--|--3----5----5--3--x--3--|--3----5----5--3--x--3--|
G||--2----2----2--2--x--2--|--2----2----2--2--x--2--|--2----2----2--2--x--2--|
D||--4----4----4--4--x--4--|--4----4----4--4--x--4--|--2----2----2--2--x--2--|
A||--2----2----2--2--x--2--|--5----5----5--5--x--5--|--2----2----2--2--x--2--|
E||--2----2----2--2--x--2--|--2----2----2--2--x--2--|--2----2----2--2--x--2--|


  Q    Q    E  E  E  E     Q    Q    E  E  E  E     Q    Q    E  E  E  E   
--2----2----2--2--x--2--|--2----2----2--2--x--2--|--2----2----2--2--x--2--|
--3----5----5--3--x--3--|--3----5----5--3--x--3--|--3----5----5--3--x--3--|
--2----2----2--2--x--2--|--2----2----2--2--x--2--|--2----2----2--2--x--2--|
--4----4----4--4--x--4--|--4----4----4--4--x--4--|--4----4----4--4--x--4--|
--2----2----2--2--x--2--|--2----2----2--2--x--2--|--5----5----5--5--x--5--|
--2----2----2--2--x--2--|--2----2----2--2--x--2--|--2----2----2--2--x--2--|


  Q    Q    E  E  E  E     Q    Q    E  E  E  E     E  E  E  E  E  E  E  E   
--2----2----2--2--x--2--|--2----2----2--2--2--2--|--5--5--5--x--5--5--5--x--|
--3----5----5--3--x--3--|--3----5----5--3--3--3--|--3--3--3--x--2--2--2--x--|
--2----2----2--2--x--2--|--2----2----2--2--2--2--|--2--2--2--x--2--2--2--x--|
--2----2----2--2--x--2--|--4----4----4--4--4--4--|--4--4--4--x--2--2--2--x--|
--2----2----2--2--x--2--|--2----2----2--2--2--2--|--5--5--5--x--4--4--4--x--|
--2----2----2--2--x--2--|--2----2----2--2--2--2--|--2--2--2--x--2--2--2--x--|


  E  E  E  E  E  E  E  E     E  E  E  E  E  E  E  E     E  E  E  Q.     E  E   
--5--5--5--5--x--3--3--5--|--5--5--5--x--5--5--5--x--|--3--3--3--5------5--5--|
--3--3--3--3--x--3--3--3--|--3--3--3--x--2--2--2--x--|--3--3--3--2------2--2--|
--2--2--2--2--x--4--4--4--|--2--2--2--x--2--2--2--x--|--4--4--4--2------2--2--|
--4--4--4--4--x--5--5--5--|--4--4--4--x--2--2--2--x--|--5--5--5--2------2--2--|
--2--2--2--2--x--2--2--2--|--5--5--5--x--4--4--4--x--|--2--2--2--4------4--4--|
--2--2--2--2--x--2--2--2--|--2--2--2--x--2--2--2--x--|--2--2--2--5------5--5--|


  Q    E  E  Q    E  E     Q    E  E  E  Q    E     Q    Q    E  E  E  E    
------------------------|--3----3--3--3--2----2--|--2----2----2--2--x--2--||
------------------------|--3----3--3--3--2----2--|--3----5----5--3--x--3--||
--5----x--5--5----5--x--|--4----4--4--4--2----2--|--2----2----2--2--x--2--||
--5----x--5--5----5--x--|--5----5--5--5--2----2--|--4----4----4--4--x--4--||
--3----x--3--3----3--x--|--5----5--5--5--2----2--|--2----2----2--2--x--2--||
------------------------|--3----3--3--3--2----2--|--2----2----2--2--x--2--||




Duration Legend
---------------
W - whole
H - half
Q - quarter
E - 8th

(http://www.lovepsychedelico.net)
Добавлено: 20.05.2012
Другие материалы по этой песне:

Страница создана 20.05.2012
http://primanota.ru/love-psychedelico/your-song-chords.htm
Привет, Гость.
Предлагаем пройти революционный курс по гитаре.
Подарок от PrimaNota.Ru, забирай!