PrimaNota.ru - самый крупный в мире бесплатный архив песенных текстов, аккордов, табулатур и нот


Love Hate - Rock Queen - текст песни, бас-таба, видео

Регистрация Запомнить меня
Войти через:  Facebook Google Twitter Vk Yandex Mail.ru

Love Hate - Rock Queen - текст песни, бас-таба, видео

Печатать
Просмотров: 75
-------------------------------------------------------------------------------
                                            Rock Queen - Love/Hate
-------------------------------------------------------------------------------

Tabbed by: ChrisT

From the album: Blackout in the red room (1990)

Tuning: Eb,Ab,Db,Gb

Verse 1                          Repeat x3
Gb|---------------------------------------|---------------------|
Db|o-------------------------------------o|---------------------|
Ab|o---3---2---0---------3---2---0-------o|---------------------|
Eb|---------------------------------------|---------------------|

Chorus
Gb|----------------------|----------------------|---------------|
Db|o--------------------o|o--------------------o|---------------|
Ab|o--5-5-5-5-5-5-5-5---o|o--------------------o|---------------|
Eb|----------------------|---5-5-5-5-5-5-5-5----|---3-----------|

Verse 2                          Repeat x3
Gb|---------------------------------------|---------------------|
Db|o-------------------------------------o|---------------------|
Ab|o---3---2---0---------3---2---0-------o|---------------------|
Eb|---------------------------------------|---------------------|

Chorus
Gb|----------------------|----------------------|
Db|o--------------------o|o--------------------o|
Ab|o--5-5-5-5-5-5-5-5---o|o--------------------o|
Eb|----------------------|---5-5-5-5-5-5-5-5----|

Gb|----------------------|----------------------|---------------|
Db|o--------------------o|o--------------------o|---------------|
Ab|o--5-5-5-5-5-5-5-5---o|o--------------------o|---------------|
Eb|----------------------|---5-5-5-5-5-5-5-5----|---3-----------|

Gb|------------------------------------------------|
Db|o----------------------------------------------o|
Ab|o--3-3-3-3-3-2---3-3-3-3-3-2---3-3-3-3-3-2-0---o|
Eb|------------------------------------------------|

Gb|----------------------------------------------|
Db|----------------------------------------------|
Ab|--3-3-3-3-3-2---3-3-3-3-3-2---3-3-3-3-3-2-5---|
Eb|----------------------------------------------|

Gb|----------------------------------------------|----------------------------|
Db|----------------------------------------------|----------------------------|
Ab|--3-3-3-3-3-2---3-3-3-3-3-2---3-3-3-3-3-2-0---|-----------------10h12------|
Eb|----------------------------------------------|----------------------------|

                                 Repeat x3
Gb|---------------------------------------|---------------------|
Db|o-------------------------------------o|---------------------|
Ab|o---3---2---0---------3---2---0-------o|---------------------|
Eb|---------------------------------------|---------------------|

Chorus                                                         Repeat x3
Gb|---------------------------------------------------------------------|
Db|o-------------------------------------------------------------------o|
Ab|o--5-5-5-5-5-5-5-5-5-5-5-5-5-5-5-5----------------------------------o|
Eb|-----------------------------------5-5-5-5-5-5-5-5-5-5-5-5-5-5-5-5---|

Gb|----------------------------------|
Db|----------------------------------|
Ab|----------------------3---2---0---|
Eb|---3------------------------------|



| /  slide up
| \  slide down
| h  hammer-on
| p  pull-off
| ~  vibrato
| +  harmonic
| x  Mute note
===============================================================================
Добавлено: 14.06.2016
Другие материалы по этой песне:
  • Аккорды и текст

Страница создана 03.07.2012
http://primanota.ru/love-hate/rock-queen-chords.htm
Привет, Гость.
Предлагаем пройти революционный курс по гитаре.
Подарок от PrimaNota.Ru, забирай!