PrimaNota.ru - самый крупный в мире бесплатный архив песенных текстов, аккордов, табулатур и нот


Love Hate - Hell, Ca., Pop. 4 - текст песни, бас-таба, видео

Регистрация Запомнить меня
Войти через:  Facebook Google Twitter Vk Yandex Mail.ru

Love Hate - Hell, Ca., Pop. 4 - текст песни, бас-таба, видео

Печатать
Просмотров: 76
-------------------------------------------------------------------------------
                                         Hell, CA, Pop. 4 - Love/Hate
-------------------------------------------------------------------------------

Tabbed by: ChrisT

From the album: Blackout in the red room (1990)

Tuning: Eb,Ab,Db,Gb

Verse 1  (0:13)                                 Repeat x8
Gb|-----|-------------------|----------------------------|--------------------|
Db|-----|-------------------|o--------------------------o|--------------------|
Ab|-----|---------------5---|o--5--5--5--5--5--5--5--5--o|---------------5----|
Eb|-----|---5-----3---------|----------------------------|---5-----3----------|

                       Repeat x4
Gb|-----------------------------|------------------------------|
Db|o---------------------------o|o----------------------------o|
Ab|o---------------------------o|o----------------------------o|
Eb|---5-5-5-5-5---5-5-5-5-5-----|---0-0-0-0-0---0---0---12\----|

                              Repeat x4
Gb|------------------------------------|
Db|o----------------------------------o|
Ab|o--5---5---5---5---5---5---5---5---o|
Eb|------------------------------------|

Chorus                                        Repeat x4
Gb|----------------------------------------------------|
Db|o--------------------------------------------------o|
Ab|o--------------3-3-3-3-3---5-5-5-5-5---3-3-3-3-3---o|
Eb|---5-5-5-5-5----------------------------------------|

Verse 2                Repeat x4                       Repeat x4
Gb|-----------------------------|-----------------------------|
Db|o---------------------------o|o---------------------------o|
Ab|o---------------------------o|o---------------------------o|
Eb|---5-5-5-5-5---5-5-5-5-5-----|---0-0-0-0-0---0---0---12\---|

                              Repeat x4
Gb|------------------------------------|
Db|o----------------------------------o|
Ab|o--5---5---5---5---5---5---5---5---o|
Eb|------------------------------------|

Chorus                                        Repeat x4
Gb|----------------------------------------------------|
Db|o--------------------------------------------------o|
Ab|o--------------3-3-3-3-3---5-5-5-5-5---3-3-3-3-3---o|
Eb|---5-5-5-5-5----------------------------------------|

                              Repeat x4  
Gb|------------------------------------|------------------------------------|
Db|o----------------------------------o|o----------------------------------o|
Ab|o--5---5---5---5---5---5---5---5---o|o--3---3---3---3---3---3---3---3---o|
Eb|------------------------------------|------------------------------------|

Gb|----------------------------------|----------------------------------|
Db|----------------------------------|----------------------------------|
Ab|--2---2---2---2---2---2---2---2---|--3---3---3---3---3---3---3---3---|
Eb|----------------------------------|----------------------------------|

Guitar solo                                   Repeat x4
Gb|----------------------------------------------------|
Db|o--------------------------------------------------o|
Ab|o--------------3-3-3-3-3---5-5-5-5-5---3-3-3-3-3---o|
Eb|---5-5-5-5-5----------------------------------------|

Chorus/outro                                  Repeat x8
Gb|----------------------------------------------------|---------------|
Db|o--------------------------------------------------o|---------------|
Ab|o--------------3-3-3-3-3---5-5-5-5-5---3-3-3-3-3---o|---------------|
Eb|---5-5-5-5-5----------------------------------------|---5-------5---|



| /  slide up
| \  slide down
| h  hammer-on
| p  pull-off
| ~  vibrato
| +  harmonic
| x  Mute note
===============================================================================

Please rate or comment.............
Добавлено: 14.06.2016
Вам также может быть интересно:
Другие материалы по этой песне:
  • Аккорды и текст

Страница создана 16.07.2012
http://primanota.ru/love-hate/hell-ca-pop-4-chords.htm
Привет, Гость.
Предлагаем пройти революционный курс по гитаре.
Подарок от PrimaNota.Ru, забирай!